Saydie - Lie Chords & Tabs

 

Lie Chords & Tabs

Saydie Chords & Tabs

Version: 1 Type: Bass Tab

Lie Bass Tab

   
----------------------------------------------------------------------------
			     Lie - Saydie
----------------------------------------------------------------------------

Tabbed By : Chai_0513
e-mail: hoverstroll_357@lycos.com

Tuning: Drop D

Intro:

G|-------------------------------------------------------------------------|
D|-------------------------------------------------------------------------|
A|-------------------------------------------------------------------------|
D|--3-3---3-3---3-3---3-3--------------------------------------------------|
    . .   . .   . .   . .

G|-------------------------------------------------------------------------|
D|-------------------------------------------------------------------------|
A|-------------------------------------------------------------------------|
D|--3-3-3-3h4-3-3-3---5-5-5--5h7-5-5-5---7-7-7--7h8-7-7-7------------------|

G|-------------------------------------------------------------------------|
D|-------------------------------------------------------------------------|
A|-------------------------------------------------------------------------|
D|--8-8-8--8h10--8-8-8-----------------------------------------------------|

Verse:

G|-------------------------------------------------------------------------|
D|-------------------------------------------------------------------------|
A|-------------------------------------------------------------------------|
D|--3-3---3-3---3-3---3-3---3/7---3-3--3-3-3--3-3--3-3-3--3-3--3-3-3-------|


G|-------------------------------------------------------------------------|
D|-------------------------------------------------------------------------|
A|-------------------------------------------------------------------------|
D|--3-3--3-3---------------------------------------------------------------|

Chorus:

G|-------------------------------------------------------------------------|
D|-------------------------------------------------------------------------|
A|-------------------------------------------------------------------------|
D|--3-3-3-3h4-3-3-3---5-5-5--5h7-5-5-5---7-7-7--7h8-7-7-7------------------|
[ Tab from: http://www.guitartabs.cc/tabs/s/saydie/lie_btab.html ]
G|-------------------------------------------------------------------------|
D|-------------------------------------------------------------------------|
A|-------------------------------------------------------------------------|
D|--8-8-8--8h10--8-8-8-----------------------------------------------------|

repeat ung verse tapos chorus uli

G|-------------------------------------------------------------------------|
D|-------------------------------------------------------------------------|
A|-------------------------------------------------------------------------|
D|--3--3-3---3--3-3---3--3-3---3--3-3--------------------------------------|

G|-------------------------------------------------------------------------|
D|-------------------------------------------------------------------------|
A|-------------------------------------------------------------------------|
E|--3--3-3-(8x)------------------------------------------------------------|

  all the needles in your head...

Chorus 2:

G|-------------------------------------------------------------------------|
D|-------------------------------------------------------------------------|
A|-------------------------------------------------------------------------|
D|--3-3-3-3h4-3-3-3---5-5-5--5h7-5-5-5---7-7-7--7h8-7-7-7------------------|

G|-------------------------------------------------------------------------|
D|-------------------------------------------------------------------------|
A|-------------------------------------------------------------------------|
D|--8-8-8--8h10--8-8-8-----------------------------------------------------|

G|-------------------------------------------------------------------------|
D|-------------------------------------------------------------------------|
A|-------------------------------------------------------------------------|
D|--3-3-6-5-3-3-3-6-5-3-3-3-6-5-3-3-(4x)-----------------------------------|

repeat ung chorus 4x tapos...

Outro:

G|-------------------------------------------------------------------------|
D|-------------------------------------------------------------------------|
A|-------------------------------------------------------------------------|
D|--8--8-8-10---8--8-8-10---8-3~-------------------------------------------|


ilo! 2nd tab k n 2 kaya kung sakaling may mali... tsuri ulit!!! hehehe
hi uli sa mga kaibigan ko sa cgh at kung nasaan man kayo ngayon nag-aaaral.
hi kay ronya, hi kay denise, kay ciarra, kay jasmin, kay sab, kay kuya eman. 
at sa inyong lahat. hehehe. pakinggan niyo n lng ung song para mas masaya. 
tsalamats


| /  slide up
| \  slide down
| h  hammer-on
| p  pull-off
| ~  vibrato
| +  harmonic
| .  Mute note
=============================================================