Saydie - Krolithikah Chords & Tabs

 

Krolithikah Chords & Tabs

Saydie Chords & Tabs

Version: 3 Type: Tab

Krolithikah Tab

kayo nlang bhala sa strumming patterns...

standard tuning

intro: 4x               2x   palm mute: V  V  V   2x       2x
e--------|-----------------------|-------------------|---------|
B--------|----8/9-----8/9--------|-------------------|---------|
G-10--x--|-10-x/x--10-x/x--6--8--|--10--10-10-10--10-|-6--8----|
D-10--x--|-10-5/6--10-5/6--6--8--|--10--10-10-10--10-|-6--8----|
A-8---x--|-8-------8-------4--6--|--8---8--8--8---8--|-4--6----|
E--------|-----------------------|-------------------|---------|
                                    ^--------------------------| repeat

verse: (palm mute)
e----------------|
B----------------|
G--10--10--6--8--|
D--10--10--6--8--|
A--8---8---4--6--|
E----------------|

chorus:
e------------------------|
B-----8/9-----8/9--------|
G--10-x/x--10-x/x--6--8--|
D--10-5/6--10-5/6--6--8--|
A--8-------8-------4--6--|
E------------------------|
[ Tab from: http://www.guitartabs.cc/tabs/s/saydie/krolithikah_tab_ver_3.html ]
solo:
e-----------------------------------------------------------------------|
B-----------------------------------------------------------------------|
G-----------------------------------------------------------------------|
D-----------------------------------------------------------------------|
A------11-11-10-10-11-10-------11-11-10-10-11-10-------11-11----11-11---|
E-13-13-----------------11-9-9------------------9-11-11----11-11--------|

e-------------------------------|
B-------------------------------|
G-------------------------------|
D-------------------------------|
A------11-11-10-10-13-15-13-11--|
E-10-10-------------------------|
this is actually a bass solo. you can play it as is, but if you're gonna play on a bass, 
it up an octave.

bridge:
e---------------|
B---------------|
G--10--6-----8--|
D--10--6--6--8--|
A--8---4--6--6--|
E---------4-----|

outro:
e---------|
B---------|
G--10--x--|
D--10--x--|
A--8---x--|
E---------|

>>>11rich03<<<
4:35pm, friday, may 19, 2006