Saydie - Krolithikah Chords & Tabs

 

Krolithikah Chords & Tabs

Saydie Chords & Tabs

Version: 2 Type: Tab

Krolithikah Tab

   
krolithikah
saydie
tabbed by: Rey Ian Cabanganan

mga chong,,dapat dati ko pa na post to eh,,kaso ewan ko hindi umaapear 
ung saydie na band,,tapos nagkaron bigla,,,hehe,,check nyo nlng to.
tinugtog na namin ng banda ko to, kuhang kuha,
mejo my similarities kme nung version one pero mas mdami ako dinagdag dito.

dropped d.

intro
guitar 1
E|--------------------|
B|--------------------|
G|----999999----------|
D|----xxxxxx----------|
A|----777777----------|
D|--------------------|
both guitars dito..
E|--------------------------------------------------------------------------
B|--------------------------------------------------------------------------
G|------5-4-5----5-4-5---555555--77777--------------------------------------
D|--22--x-x-x-22-x-x-x---xxxxxx--xxxxx-------------------------------------
A|--22--3-2-3-22-3-2-3---333333--55555--------------------------------------
D|--22--------22------------------------------------------------------------

E|--------------------------------------------------------------------------
B|--------------------------------------------------------------------------
G|----------------------------555555--77777---------------------------------
D|-2222222--0~---2222222--0~--xxxxxx--xxxxx---------------------------------
A|-2222222--0~---2222222--0~--333333--55555---------------------------------
D|-2222222--0~---2222222--0~------------------------------------------------
two times to, tapos intro,,

tapos sunod to..		
guitar 1
verse.
e|--------------------------------------------------------------------------
B|--------------------------------------------------------------------------
G|--------------------------------------------------------------------------
D|--------------------------------------------------------------------------
A|-77--99--66--88---6p5--------6-6--3r2-2h3---------------------------------
D|----------------------6h8--8----------------------------------------------

e|--------------------------------------------------------------------------
B|--------------------------------------------------------------------------
G|--------------------------------------------------------------------------
D|----------------------77---7r5-4h5--4h5-----------------------------------
A|-77--10-10-66--88---55----------------------------------------------------
D|--------------------------------------------------------------------------
sa verse, lagyan nyo nlng ng onting plam mute,

guitar 2 eto ung lead,,pakinggan nlng maiigi yung song,
e|--------------------------------------------------------------------------
B|-------8h10------10-10--8p7-7h8-------------------------------------------
G|----9---------------------------------------------------------------------
D|--------------------------------------------------------------------------
A|--------------------------------------------------------------------------
D|--------------------------------------------------------------------------

chorus
guitar 1
E|--------------------------------------------------------------------------
B|--------------------------------------------------------------------------
G|------5-4-5----5-4-5---555555--77777--------------------------------------
D|--22--x-x-x-22-x-x-x---xxxxxx--xxxxx--------------------------------------
A|--22--3-2-3-22-3-2-3---333333--55555--------------------------------------
D|--22--------22------------------------------------------------------------
   die! follow the water! die! follow the water,,
guitar 2
e|--------------10--8---------------10--8----------------------------------|
B|----12---------------12--12---------------12----7-7-7---999----12--9--7--|
G|--------9--9-----------------9-9-----------------------------------------|
D|-------------------------------------------------------------------------|
A|-------------------------------------------------------------------------|
D|-------------------------------------------------------------------------|
 two times ang chorus,,


[ Tab from: http://www.guitartabs.cc/tabs/s/saydie/krolithikah_tab_ver_2.html ]
bridge:
e|-------------------------------------------------------------|
B|-------------------------------------------------------------|
G|------3-4-5--------------------------------------------------|
D|--2~--x-x-x-----2--2--2--2-----------2~----------------------|
A|--2~--1-2-3-----2--2--2--2-----------2~----------------------|
D|--2~------------2--2--2--2-----------2~----------------------|
          two times                tapos eto
guitar 1 (clean)
E|-------------------------------------------------------------|
B|-------------------------------------------------------------|
G|-------------------------------------------------------------|
D|-----2----5---5---4---4---5-4---------0---5---5---4---4-5-4--|
A|----2--2----2---2---2---2-----0--3--3---3---3---3---3------0-|
D|-0-2---------------------------------------------------------|

E|-----------------------------------------------------------------------|
B|-----------------------------------------------------------------------|
G|-----------------------------------------------------------------------|
D|---------5-----5-----------5---5-----------0----7----7----5--7--9--7--5|
A|-----5------5-----5----5-----5---5---5---5---5-----5---5---------------|
D|-5-5---5-------------5---5---------------------------------------------|
 two times to.
guitar 2..habang ginagwa ng guitar one ung taas^^ eto gagawin,,
E|-------------------------------------------------------------------------|
B|-------------------------------------------------------------------------|
G|-------------------------------------------------------------------------|
D|--22222222--55555-55555555---7777777-------------------------------------|
A|--22222222--33333-55555555---5555555-------------------------------------|
D|--22222222--------55555555-----------------------------------------------|
    ........  ..... ........   ....... lagyan po ng plam mute..
    
tpos eto sunod....
both guitars..
E|-------------------------------------------------------------------------|
B|-------------------------------------------------------------------------|
G|-------55----------------------------------------------------------------|
D|--222--xx---55-----7r4---4h5r4--5p4---0h4r0------------------------------|
A|--222--33---55---------5------------5------------------------------------|
D|--222-------55-----------------------------------------------------------|
                     guitar 1 to.
		two time din to.....
next to...guitar 1
E|-------------------------------------------------|
B|-------------------------------------------------|
G|------------55555-------------7777777------------|
D|--22222222--xxxxx---555555----xxxxxxx------------| two times
A|--22222222--33333---555555----5555555------------| do this kasabay ng lead
D|--22222222----------555555-----------------------|
  
eto na lead...guitar 2
E|-------------------------------------10---8----------------------------|
B|---12--10---10-12-10-12-10-12---10----------8-----12p10--9-10-10-10----|
G|----------9-------------------9----9----9----------------------9--9----|
D|-----------------------------------------------------------------------|
A|-----------------------------------------------------------------------|
D|-----------------------------------------------------------------------|

E|--10-8-7-8-7----10-8-7-8-7----10-8-7-8/12--10--|
B|-------------8-------------8-------------------|
G|-----------------------------------------------|
D|-----------------------------------------------|
A|-----------------------------------------------|
D|-----------------------------------------------|
two times to...
tapos intro..
E|--------------------|
B|--------------------|
G|----999999----------|
D|----xxxxxx----------|
A|----777777----------|
D|--------------------|
guitar 1 and 2
E|-------------------------------------------------------------------------|
B|-------------------------------------------------------------------------|
G|-------55----------------------------------------------------------------|
D|--222--xx---55-----7r4---4h5r4--5p4---0h4r0------------------------------|
A|--222--33---55---------5------------5------------------------------------|
D|--222-------55-----------------------------------------------------------|
			...i hope you fucking.. 

both guitars ends on this.
E|-----------------|
B|-----------------|
G|-----------------|
D|-2---------------|
A|-2---------------|
D|-2---------------|
  die!


yan po tapos nah! auz, pakiinggan lang po maiigi at madalas ung kanta para
makrelate talaga, astig saydie!
sa mga kabanda ko, botchok, dominik, jimbo, jovan, jonas,,mabuhay tayo. hhehe.
hi sa mahal ko na si ingrid! 
paki rate nlng ah, salamat po!