Saybia - The Second You Sleep Chords & Tabs

 

The Second You Sleep Chords & Tabs

Saybia Chords & Tabs

Version: 2 Type: Tab 0 ratings
1 star 2 stars 3 stars 4 stars 5 stars
comments

The Second You Sleep Tab

   
Saybia - The Second You Sleep

This is the rythme guitar. There's another electric guitar in the back
but i did'nt bother to take that one as well.
I'm pretty sure that this is the right way to play the song.
It was bloddy hard to figure out.
Well.. Have fun with it! :)
kristian_erikson@hotmail.com


Verse:
	E	E
e|----------------------|
b|--------------1-------|
g|------1-------1-------|
D|------2-------2-------|
A|------2-------2-------|
E|----------------------|


Bridge:
	C#m	H	A
e|----------------------------|
b|------5-------4-------2-----|
g|------6-------4-------2-----|
D|------6-------4-------2-----|
A|------4-------2-------0-----|
E|----------------------------|


Chorus:
	Cm	A	E	H	C?
e|--------------------------------------------|
b|----------------------12-------------10-----|
g|------9-------6-------13------8------8------|
D|------11------7-------14------9------10-----|
A|------11------7-------14------9------9------|
E|------9-------5-------12------7------8------|

The chorus ends on A
At one point in the song it keep hanging in the same chord.
Wich is A A.
[ Tab from: http://www.guitartabs.cc/tabs/s/saybia/the_second_you_sleep_tab_ver_2.html ]
That's pretty much the basics of the song.
Here's the lyrics:


You close your eyes
And leave me naked by your side
you close the door so I can't see
the love you keep inside
the love you keep me

It fills me up
I feels like living in a dream
It fills me up so i can see
the love you keep inside
the love you keep me

I stay to watch you fade away
I dream of you tonight
tomorrow you'll be gone
It gives me time to stay
to watch you fade away
I dream of you tonight
tomorrow you'll be gone
I wish by god you'll stay

I stay awake
I stay awake and watch you breathe
I stay awake and watch you fly
Away into the night
Escaping though a dream

I stay to watch you fade away
I dream of you tonight
tomorrow you'll be gone
It gives me time to stay
to watch you fade away
I dream of you tonight
tomorrow you'll be gone
I wish by god you'll stay
stay...
stay...

I stay to watch you fade away
I dream of you tonight
tomorrow you'll be gone
It gives me time to stay
to watch you fade away
I dream of you tonight
tomorrow you'll be gone

It gives me time to stay
to watch you fade away
I dream of you tonight
tomorrow you'll be gone
I wish by god you'll stay
stay...
stay...
stay...

I wish by god you'd stay..
Comments