Saybia - The Day After Tomorrow Chords & Tabs

 

The Day After Tomorrow Chords & Tabs

Saybia Chords & Tabs

Version: 1 Type: Tab 0 ratings
1 star 2 stars 3 stars 4 stars 5 stars
comments

The Day After Tomorrow Tab

   
The Day After Tomorrow - Saybia
-------------------------------

Intro:

    Bm              G                 A               E
   N.H..............................     N.H.    N.H.    N.H.....
                                                          let ring
E||---------------------------------|-9-------9---------------12~~~~---|
B||-12------7-----------12------12--|-----------------9---12-----------|
G||-----7-------7-----------7-------|-----7----------------------------|
D||-----------------7---------------|-------------7--------------------|
A||---------------------------------|----------------------------------|
E||---------------------------------|----------------------------------|


    Bm              G                A               E
   N.H..............................      N.H            N.H...........
                                          let ring            let ring
E||---------------------------------|-9-----------------------12~~~~---|
B||-12------7-----------12------12--|-----------------9---12-----------|
G||-----7-------7-----------7-------|------7~~~------------------------|
D||-----------------7---------------|----------------------------------|
A||---------------------------------|----------------------------------|
E||---------------------------------|----------------------------------|


    E                                 Please tell me...
       N.H             N.H..........
        let ring            let ring
E||-------------------------12~~~---|-----------------
B||-9---12~~~-------9---12----------|-----------------
G||---------------------------------|-----------------
D||---------------------------------|-----------------
A||---------------------------------|-----------------
E||---------------------------------|-----------------


                  F#m    A
   Please tell me why do birds,
   D                A
   sing when you're near me,
   D                F#m      G     E
   sing when you're close to me
                 F#m   A
   They say that I'm a fool,
       D          A
   for loving you deeply,
   D          F#m   G    G    E   E
   loving you secretly


         Bm          G
   But I crash in my mind,
       A            E
   whenever you are near
           Bm             G
   Getting deaf, dumb and blind
        A              E
   Just drowning in despair
        Bm             G
   I am lost in you're flame
        A                E
   It's burning like the sun
         Bm            G
   And I call out your name
       A              E
   The moment you are gone


                  F#m       A
   Please tell me why can't I,
   D                   A
   breathe when you're near me,
   D                 F#m      G    E
   breathe when your close to me
              F#m      A
   I know you know I'm lost
      D          A
   in loving you deeply,
   D          F#m   G    G    E   E
   loving you secretly   secretly



         Bm          G
   But I crash in my mind,
       A            E
   whenever you are near
           Bm             G
   Getting deaf, dumb and blind
        A              E
   Just drowning in despair
        Bm             G
   I am lost in you're flame
        A                E
   It's burning like the sun
         Bm            G
   And I call out your name
       A              E
   The moment you are gone


     Em                        Bm
   Tomorrow, I'll say it all tomorrow
                      E          Em
   Or the day after tomorrow
                          Bm
   I'm sure I'll tell you then



   Play 4 times.....................
E||---------------------------------
B||-5-\-7---7---7---7-/-5-------5---
G||---------------------------------
D||---------------------------------
A||---------------------------------
E||---------------------------------

    1               2               3               4

E||-----------------------------------------------------------------|
B||-5-\-7---7---7---7-/-5-------5---5-\-7---7---7---7b8-7-/-5---5---|
G||-----------------------------------------------------------------|
D||-----------------------------------------------------------------|
A||-----------------------------------------------------------------|
E||-----------------------------------------------------------------|

    A               2               3               4
[ Tab from: http://www.guitartabs.cc/tabs/s/saybia/the_day_after_tomorrow_tab.html ]
E||-4-\-5---5-------5-----------5---5-/-4---4-------4-------4---4---|
B||-----------------------------------------------------------------|
G||-----------------------------------------------------------------|
D||-----------------------------------------------------------------|
A||-----------------------------------------------------------------|
E||-----------------------------------------------------------------|


    1               2               3               4

E||-----------------------------------------------------------------|
B||-9-\-7---7---7---7-/-5-------5---5-\-7---7---7---7b8-7-/-5---5---|
G||-----------------------------------------------------------------|
D||-----------------------------------------------------------------|
A||-----------------------------------------------------------------|
E||-----------------------------------------------------------------|

    1               2               3               4

E||-4-\-5---5-------5---------------5-------4-\-7---7---7---7-------|
B||-----------------------------------------------------------------|
G||-----------------------------------------------------------------|
D||-----------------------------------------------------------------|
A||-----------------------------------------------------------------|
E||-----------------------------------------------------------------|

    1               2               3               4

E||-----------------------------------------------------------------|
B||-5-\-7---7---7---7-/-5-------5---5-\-7---7---7---7b8-7-/-5---5---|
G||-----------------------------------------------------------------|
D||-----------------------------------------------------------------|
A||-----------------------------------------------------------------|
E||-----------------------------------------------------------------|

    1               2               3               4
                                                    hold bend.....
E||-4-\-5---5-------5-----------5---5-/-4---4-\-10-b12--12--12------|
B||-----------------------------------------------------------------|
G||-----------------------------------------------------------------|
D||-----------------------------------------------------------------|
A||-----------------------------------------------------------------|
E||-----------------------------------------------------------------|


    1               2               3               4
E||-----------------------------------------------------------------|
B||-5-\-7---7---7---7-/-5-------5---5-\-7---7---7---7b8-7-/-5---5---|
G||-----------------------------------------------------------------|
D||-----------------------------------------------------------------|
A||-----------------------------------------------------------------|
E||-----------------------------------------------------------------|

    1               2               3               4

E||-4-\-5---5-------5---------------5-------4-\-7---7---7---7-------|
B||-----------------------------------------------------------------|
G||-----------------------------------------------------------------|
D||-----------------------------------------------------------------|
A||-----------------------------------------------------------------|
E||-----------------------------------------------------------------|


         Bm          G
   But I crash in my mind,
       A            E
   whenever you are near
           Bm             G
   Getting deaf, dumb and blind
        A              E
   Just drowning in despair
        Bm             G
   I am lost in you're flame
        A                E
   It's burning like the sun
         Bm            G
   And I call out your name
       A              E
   The moment you are gone


   Outro

    Bm              G               A               E
   N.H...................................      N.H.    N.H.........
                let ring
E||-----------------------------------------9---------------12------|
B||-12------7-----------12------12--12--------------9---12------12--|
G||-----7-------7-----------7-----------7---------------------------|
D||---------------------------------------------7-------------------|
A||-----------------------------------------------------------------|
E||-----------------------------------------------------------------|


    Bm              G               A               E
   N.H...................................      N.H....
                let ring                            let ring........
E||-----------------------------------------9-----------------------|
B||-12------7-----------12------12--12--------------12~~~-----------|
G||-----7-------7-----------7-----------7---------------------------|
D||---------------------------------------------7-------------------|
A||-----------------------------------------------------------------|
E||-----------------------------------------------------------------|


Chords used:
       Bm       G       D        A        E        Em
    e --2--   --3--   --2--    --0--    --0--    --0--
    B --3--   --3--   --3--    --2--    --0--    --0--
    G --4--   --0--   --2--    --2--    --1--    --0--
    D --4--   --0--   --0--    --2--    --2--    --2--
    A --2--   --2--   --x--    --0--    --2--    --2--
    E --x--   --3--   --x--    --0--    --0--    --0--


(Intro, solo & outro not by nTNzT, e-mail:  ntnzt@hotmail.com)

Transcribed by Ferry Falkenburg (ferry.falkenburg@wanadoo.nl)
Comments