Saybia - It's Ok Love Chords & Tabs

 

It's Ok Love Chords & Tabs

Saybia Chords & Tabs

Version: 1 Type: Chords 0 ratings
1 star 2 stars 3 stars 4 stars 5 stars
comments

It's Ok Love Chords

   
Artist: Saybia
Song: It’s ok love
Album: These are the days
Tabbed by: Kim N. Feldborg


Chords
----------
Bb:	x13331
C:	x32010
Dm:	xx0231
F:	133211
G:	320022


Intro
----------
G Dm G

If you want to play the piano intro melody the chords are:


  G	        Dm	G
E|--3-x-x-3-3-3-|-1-1-1-0-x-3-3-3--|
B|--3-3-3-3-3-3-|-3-3-3-3-3-3-3-3--|
G|--0-2-4-0-0-0-|-2-2-2-2-0-0-0-0--|
D|--0-0-0-0-0-0-|-0-0-0-0-0-0-0-0--|
A|--2-2-2-2-2-2-|-x-x-x-x-x-2-2-2--|
E|--3-x-x-3-3-3-|-x-x-x-x-x-3-3-3--| 	x 2


Listen to the song and figure out the strumming pattern


Intro – Verse
----------
G  /  /  /  /  /  /  /  Dm /  /  /  /  /  /  /
Caught …              … lonely …

G  /  /  /  /  /  /  /  Dm /  /  /  /  /  /  / 
High …                … just …


Verse 1
----------
F  /  /  /  /  /  /  /  C  /  /  /  /  /  /  /               
Sorry …               … meant …

F  /  /  /  /  /  /  /  C  /  /  /  /  /  /  /
Stayed …              … forgot …


  F  /  /  /  /  /  /  /  C  /  /  /  /  /  /  /
… nothing …             … with …

  Dm /  /  /  F  /  /  /  C  /  /  /  /  /  /  /
… life …    … there …   … here…

[ Tab from: http://www.guitartabs.cc/tabs/s/saybia/its_ok_love_crd.html ]
Chorus 1
----------
F  /     Dm /        F  /       C  /
Just … … thought … … nobody … … out … 

F  /       Dm /      F  /      C  /   
noone …  … quiet … … stood … … me …

F  /  G  /     C  /      F  /
I … … side … … found … … smiling … 

Dm /           C  /        G  /  /  /
Patiently …  … holding … … hand …

  Dm /     C  /     Bb /   F  /     Bb /     F  /     C  /  /  /
… over … … over … … ok … … love … … easy … … love … … here


Verse 2
----------
Same chords as in verse 1


Chorus 2
----------
Same chords as in chorus 1


Outro
----------
G Dm G


G	        Dm	G
E|--3-x-x-3-3-3-|-1-1-1-0-x-3-3-3--|
B|--3-3-3-3-3-3-|-3-3-3-3-3-3-3-3--|
G|--0-2-4-0-0-0-|-2-2-2-2-0-0-0-0--|
D|--0-0-0-0-0-0-|-0-0-0-0-0-0-0-0--|
A|--2-2-2-2-2-2-|-x-x-x-x-x-2-2-2--|
E|--3-x-x-3-3-3-|-x-x-x-x-x-3-3-3--|

G	        Dm	  G
E|--3-x-x-3-3-3-|-1-1-1-0-x-x-3--|
B|--3-3-3-3-3-3-|-3-3-3-3-3-1-3--|
G|--0-2-4-0-0-0-|-2-2-2-2-0-2-0--|
D|--0-0-0-0-0-0-|-0-0-0-0-0-0-0--|
A|--2-2-2-2-2-2-|-x-x-x-x-x-x-2--|
E|--3-x-x-3-3-3-|-x-x-x-x-x-x-3--|


Comments and corrections (if any) can be sent to Kim N. Feldborg
E-mail: knf4@hotmail.com
Comments