Saybia - I Surrender Chords & Tabs

 

I Surrender Chords & Tabs

Saybia Chords & Tabs

Version: 3 Type: Tab 0 ratings
1 star 2 stars 3 stars 4 stars 5 stars
comments

I Surrender Tab

   
 
 Saybia - I Surrender

Tabbed by: Gert K
E-mail/MSN: gertk666@hotmail.com
Date: 10.14.04

Chords :

      Am        C         Em        G         D       Dsus4
 e] --0--     --0--     --0--     --3--     --2--     --3-- |
 B] --1--     --1--     --0--     --3--     --3--     --3-- |
 G] --2--     --0--     --0--     --0--     --2--     --2-- |
 D] --2--     --2--     --2--     --0--     --0--     --0-- |
 A] --0--     --3--     --2--     --2--     -----     ----- |
 E] -----     -----     --0--     --3--     -----     ----- |


Intro :

e]----0---0---0---0----0---0---0---0-----0--0--0--0---0---0------|
B]---10--10--10---8----8---7---7---5-----3--3--3--1---1---5------|
G]----9---9---9---9----9---8---8---6-----4--4--4--2---2---6------| 
D]---10--10--10--10---10---9---9---7-----5--5--5--3---3---7------| 
A]---------------------------------------------------------------|
E]---------------------------------------------------------------|

     Am                              C
   A million suns are glowing in the night 
                 Em
   everything is quiet 
                      G
   except for all the voices in my head 
                 Am
   that say your name 
                         C
   tonight I'm letting go 
                 Em    D    Dsus4    D    Dsus4
   about to give in 


        D
   I surrender myself 
   Am                 C
   into the arms of a beautiful stranger 
        D                Am
   I surrender myself to you 
      C
   To you 

[ Tab from: http://www.guitartabs.cc/tabs/s/saybia/i_surrender_tab_ver_3.html ]
        D
   I surrender myself 
   Am                 C
   into the arms of a beautiful stranger 
        D                Am
   I surrender myself to you 
      C
   To you 


   Am                                C
   There is only one bridge left for me 
                      Em
   my heart is almost free 
                   G
   Beautiful by my side  
                            Am
   but all I think about is you 
                         C
   tonight I'm letting go 
                 Em     D    Dsus4    D    Dsus4
   about to give in 


        D
   I surrender myself 
   Am                 C
   into the arms of a beautiful stranger 
        D                Am
   I surrender myself to you 
      C
   To you 


        D
   I surrender myself 
   Am                 C
   into the arms of a beautiful stranger 
        D                Am       C
   I surrender myself to you 
              G        D    Am    C
   Who really loves me 
              G        D    Am    C
   you really love me 
                G        D    Am    C
   My beautiful stranger 
                G     D       Am  C
   you really love me like I love you.



End :

e]----0---0---0---0----0---0---0---0-----0--0--0--0---0---0------|
B]---10--10--10---8----8---7---7---5-----3--3--3--1---1---3------|
G]----9---9---9---9----9---8---8---6-----4--4--4--2---2---4------| 
D]---10--10--10--10---10---9---9---7-----5--5--5--3---3---5------| 
A]---------------------------------------------------------------|
E]---------------------------------------------------------------|

Thats all... hope you injoyed ;)
Comments