Saybia - I Surrender Chords & Tabs

 

I Surrender Chords & Tabs

Saybia Chords & Tabs

Version: 2 Type: Tab 1 rating
1 star 2 stars 3 stars 4 stars 5 stars
comments

I Surrender Tab

   
SAYBIA - I surrender 
(These Are The Days)

Tabbed by M. Tolenaars 

The song is played with a capo on 2nd fret. Easy to play a beautiful song!
Enjoy!


Intro (Play it twice):

 
e-|---0-----|---0----|---0----|---0----|---0----|---0----|---0---| 
B-|---12----|---10---|---9----|---5----|---3----|---1----|---5---|
G-|---11----|---11---|---10---|---6----|---4----|---2----|---6---|
D-|---12----|---12---|---11---|---7----|---5----|---3 ---|---7---|
A-|---0-----|---0----|---0----|---0----|---0----|---0----|---0---|
E-|---------|--------|--------|--------|--------|--------|-------|

	


Verse 1:

Am                                C 
A million suns are glowing in the night
                 Em                     G 
everything is quiet, except for all the voices in my head 
              Am 
that say your name
                    C 			Em  
tonight I'm letting go, about to give in

D - Dsus4 - D - Dsus4DDsus4



Chorus:
G         D 
I         surrender myself
Am                 C 
into the arms of a beautiful stranger
G         D                   Am 
I         surrender myself to you
   C 
to you
[ Tab from: http://www.guitartabs.cc/tabs/s/saybia/i_surrender_tab_ver_2.html ]
Verse 2:
Am 			   C 
There is only one bridge left for me
                   Em
my heart is almost free
                G 
beautiful by my side
                         Am 
but all I think about is you
                    C                  Em 
tonight I'm letting go - about to give in

D  - Dsus4DDsus4

Chorus:
G         D 
I         surrender myself
Am                 C 
into the arms of a beautiful stranger
G         D 		       Am 
I         surrender myself to you
   C 
to you

           G         D -   Am -   C 
Who really loves me
            G (D)      D -   Am -   C 
you  really love me
             G (D)      D -   Am -   C 
My beautiful stranger
            G         D         Am                   C    
you really love me - like I     love                 you



Outro (Play it twice):

e-|---0-----|---0----|---0----|---0----|---0----|---0----|---0---|
B-|---12----|---10---|---9----|---5----|---3----|---1----|---5---|
G-|---11----|---11---|---10---|---6----|---4----|---2----|---6---|
D-|---12----|---12---|---11---|---7----|---5----|---3 ---|---7---|
A-|---0-----|---0----|---0----|---0----|---0----|---0----|---0---|
E-|---------|--------|--------|--------|--------|--------|-------|

Comments