Say Anything - A Walk Through Hell Chords & Tabs

 

A Walk Through Hell Chords & Tabs

Say Anything Chords & Tabs

Version: 1 Type: Tab

A Walk Through Hell Tab

-----------------------------------------------------------------------------
			  A Walk Through Hell - Say Anything
-----------------------------------------------------------------------------

Tuning: STANDARD

Intro
e|--------------------------------------------------------------------------|
B|--------------------------------------------------------------------------|
G|-----6--6-------6--6-----6--6-----6--6-----4--4----4--4-----7--7---------7|
D|-----7--7-------7--7-----7--7-----7--7-----6--6----6--6-----7--7-----7h9--|
A|---------------------9-9------9-9------7-7------7-7-----5-5------5-5------|
E|-5-5---------5-5----------------------------------------------------------|

e|--------------------------------------------------------------------------|
B|--------------------------------------------------------------------------|
G|-----6--6-------6--6-----6--6-----6--6-----4--4----4--4-----7--7----------|
D|-----7--7-------7--7-----7--7-----7--7-----6--6----6--6-----7--7--7-7-7-7-|
A|---------------------9-9------9-9------7-7------7-7-----5-5------5-5-5-5--|
E|-5-5---------5-5----------------------------------------------------------|
[ Tab from: http://www.guitartabs.cc/tabs/s/say_anything/a_walk_through_hell_tab.html ]
Prechorus
e|-----------------------------------------|
B|-----------------------------------------|
G|-----2---2-----2---2-----2---2-----2---2-|
D|-------2---------2---------2---------2---|
A|-5-5-------4-4-------2-2-------0-0-------|
E|-----------------------------------------|

Verse
e|--------------------------------------------------------------------------|
B|--------------------------------------------------------------------------|
G|-----6--6-------6--6-----6--6-----6--6-----4--4----4--4-----7--7-----7--7-|
D|-----7--7-------7--7-----7--7-----7--7-----6--6----6--6-----7--7-----7--7-|
A|---------------------9-9------9-9------7-7------7-7-----5-5------5-5------|
E|-5-5---------5-5----------------------------------------------------------|

Chorus
e|--------------------------------------------------------------------------|
B|--------------------------------------------------------------------------|
G|----------------------------------7-7-------------------------------------|
D|-7-7-7-7-4-4-4-4-2-2-2-2-2-2-2-2--7-7--4-4-2-2-2-2-2-2-2-2-2-2-2-2-2-2-2-2|
A|-7-7-7-7-4-4-4-4-2-2-2-2-2-2-2-2--5-5--4-4-2-2-2-2-2-2-2-2-2-2-2-2-2-2-2-2|
E|-5-5-5-5-2-2-2-2-0-0-0-0-0-0-0-0-------2-2-0-0-0-0-0-0-0-0-0-0-0-0-0-0-0-0|

Riff After Chorus (Second guitar plays chorus)
e|-----------------------------------|
B|-2h3s5-----------------------------|
G|-------4s6-4s6s4-2-------2---------|
D|-------------------4p2-4---------2-|
A|---------------------------0h2h4---|
E|-----------------------------------|