Saxon - Wheels Of Steel Chords & Tabs

 

Wheels Of Steel Chords & Tabs

Saxon Chords & Tabs

Version: 2 Type: Tab 0 ratings
1 star 2 stars 3 stars 4 stars 5 stars
comments

Wheels Of Steel Tab

First tab so Appreciate.

Saxon
Wheels of Steel
Tune Guitar Down To Steps
Intro
1st Time only;
E----------------------------------------------------------------------------|
B----------------------------------------------------------------------------|
G---2~~~~~~~~~~~~~~~~~~~~~~~~~~~------------------54-------------------------|
D---2~~~~~~~~~~~~~~~~~~~~~~~~~~~------------------54-------------------------|
A---0~~~~~~~~~~~~~~~~~~~~~~~~~~~---------------------------------------------|
E----------------------------------------------------------------------------|
 Play ^ and the lower one once and then repeat lower one
7 times
E----------------------------------------------------------------------------|
B----------------------------------------------------------------------------|
G-2---5-42--------5-425\4----2---5-42---------5--4\2---------5\4-------------|
D-2---5-42--------5-425\4----2---5-42---------5--4\2---------5\4-------------|
A-0-0--0-----0-0---0-----------0-0--0-0--0-0----0----------------------------|
E----------------------------------------------------------------------------|
[ Tab from: http://www.guitartabs.cc/tabs/s/saxon/wheels_of_steel_tab_ver_2.html ]
Chorus;
E----------------------------2--------3--------------------------------------|
B-3--------3---3-----------3--------3---3------------------------------------|
G-2--------0---0---2------2--------0---0-------------------------------------|
D-0--------0---0---2------0--------0---0-------------------------------------|
A-----------3---2---0---------------3---2------------------------------------|
E----------------------------------------------------------------------------|

E----------------------------------------------------------------------------|
B----------------------------------------------------------------------------|
G-2---5-42--------5-425\4----2---5-42---------5--4\2---------5\4-------------|
D-2---5-42--------5-425\4----2---5-42---------5--4\2---------5\4-------------|
A-0-0--0-----0-0---0-----------0-0--0-0--0-0----0----------------------------|
E----------------------------------------------------------------------------|

Verse 2;
Play this 7 times.
E----------------------------------------------------------------------------|
B----------------------------------------------------------------------------|
G-2---5-42--------5-425\4----2---5-42---------5--4\2---------5\4-------------|
D-2---5-42--------5-425\4----2---5-42---------5--4\2---------5\4-------------|
A-0-0--0-----0-0---0-----------0-0--0-0--0-0----0----------------------------|
E----------------------------------------------------------------------------|

Chorus 2;
E-------------------------2--------3------------------------------------|
B-3--------3---3----------3--------3---3--------------------------------|
G-2--------0---0---2------2--------0---0------2---2---2-----------------|
D-0--------0---0---2------0--------0---0----5-2-5-2-5-2-----------------|
A----------3---2---0---------------3---2----5-0-5-0-5-0-----------------|
E-------------------------------------------3---3----3------------------|

Any Problems? Email is widget_898@hotmail.com
Hope you like it, its my first tab so appreciate.
Saxon Rock!
Comments