Saxon - Solid Ball Of Rock Chords & Tabs

 

Solid Ball Of Rock Chords & Tabs

Saxon Chords & Tabs

Version: 1 Type: Tab 0 ratings
1 star 2 stars 3 stars 4 stars 5 stars
comments

Solid Ball Of Rock Tab

Saxon - Solid Ball of Rock
Album: SOLID BALL OF ROCK (1990)
Tab by: lennert moens ( hallo_kroket14@hotmail.com )

* : palm muted ]


(After the first whistle)

e -----------|
b -----------|
g -----------|
d ----8------| (palm muted so that you just hear a crunchy sound)
a ----6------|	    ( follow the rithm)
E -----------|


e -------------------|
b -------------------|
g ----6--------------|
d ----4------6-8-----|
a -----------4-6-----|
E -------------------|
(4 times)

Riff:
e --------------------------------------------------------|
b --------------------------------------------------------|
g ---6-6-----------6-6-----------6-6-----------6-6--------|
d ---4-4----6-8----4-4----6-8----4-4----6-6----4-4----6-8-|
a ----------4-6-----------4-6-----------4-3---------- 4-6-|
E --------------------------------------------------------|
 ( 3 times)

Chorus:
e ------------------------------------------|
b ------------------------------------------|
g ------------------------------------------|
d -----88888--8*8*--8--8*8*--8--8*8*--8-----|
a -----66666--6*6*--6--6*6*--6--6*6*--6-----|
E ------------------------------------------|

e --------------------------------------------|
b --------------------------------------------|
g --------------------------------------------|
d -----66666--6*6*--6--6*6*--6--6*6*--6-------|
a -----44444--4*4*--4--4*4*--4--4*4*--4-------|
E --------------------------------------------|

e --------------------------------------------------------------|
b --------------------------------------------------------------|
g --------------------------------------------------------------|
d -----------------------------------------8-8-8-8-8-8-8-8-8-8--|
a -----66666--6*6*--6--6*6*--6--6*6*--6----6-6-6-6-6-6-6-6-6-6--|
E -----44444--4*4*--4--4*4*--4--4*4*--4-------------------------|

Riff:
e --------------------------------------------------------|
b --------------------------------------------------------|
g ---6-6-----------6-6-----------6-6-----------6-6--------|
d ---4-4----6-8----4-4----6-8----4-4----6-6----4-4----6-8-|
a ----------4-6-----------4-6-----------4-3---------- 4-6-|
E --------------------------------------------------------|

Chorus:
e ------------------------------------------|
b ------------------------------------------|
g ------------------------------------------|
d -----88888--8*8*--8--8*8*--8--8*8*--8-----|
a -----66666--6*6*--6--6*6*--6--6*6*--6-----|
E ------------------------------------------|

e --------------------------------------------|
b --------------------------------------------|
g --------------------------------------------|
d -----66666--6*6*--6--6*6*--6--6*6*--6-------|
a -----44444--4*4*--4--4*4*--4--4*4*--4-------|
E --------------------------------------------|
[ Tab from: http://www.guitartabs.cc/tabs/s/saxon/solid_ball_of_rock_tab.html ]
e --------------------------------------------------------------|
b --------------------------------------------------------------|
g --------------------------------------------------------------|
d -----------------------------------------8-8-8-8-8-8-8-8-8-8--|
a -----66666--6*6*--6--6*6*--6--6*6*--6----6-6-6-6-6-6-6-6-6-6--|
E -----44444--4*4*--4--4*4*--4--4*4*--4-------------------------|


Solo: during the solo the first guitar plays this:
e ---------------------------------------------------------|
b ---------------------------------------------------------|
g ---8-8-----------8-8-----------8-8-----------8-8---------|
d ---6-6----8-10---6-6----8-10---6-6----8-8----6-6----8-10-|
a ----------6-8-----------6-8-----------6-5---------- 6-8--|
E ---------------------------------------------------------|

e --------------------------------------------------------|
b --------------------------------------------------------|
g ---6-6-----------6-6-----------6-6-----------6-6--------|
d ---4-4----6-8----4-4----6-8----4-4----6-6----4-4----6-8-|
a ----------4-6-----------4-6-----------4-3---------- 4-6-|
E --------------------------------------------------------|
( let the last chord fade out )


after the whistle:

e -------------------        e ---------------------------------------------|
b -------------------         b --------------------------------------------|
g ----6--------------    then    g ---6-------------------------------------|
d ----4---6---8-----        d ---4---6---4-4*4*4*4*4*4*4*4*4*4*4*4*4*-------|
a --------4---6-----        a -------4---2-2*2*2*2*2*2*2*2*2*2*2*2*2*-------|
E -------------------        E ---------------------------------------------|
(3times)


Riff:
e --------------------------------------------------------|
b --------------------------------------------------------|
g ---6-6-----------6-6-----------6-6-----------6-6--------|
d ---4-4----6-8----4-4----6-8----4-4----6-6----4-4----6-8-|
a ----------4-6-----------4-6-----------4-3---------- 4-6-|
E --------------------------------------------------------|


Chorus: ( 2 times)
e ------------------------------------------|
b ------------------------------------------|
g ------------------------------------------|
d -----88888--8*8*--8--8*8*--8--8*8*--8-----|
a -----66666--6*6*--6--6*6*--6--6*6*--6-----|
E ------------------------------------------|

e --------------------------------------------|
b --------------------------------------------|
g --------------------------------------------|
d -----66666--6*6*--6--6*6*--6--6*6*--6-------|
a -----44444--4*4*--4--4*4*--4--4*4*--4-------|
E --------------------------------------------|

e --------------------------------------------------------------|
b --------------------------------------------------------------|
g --------------------------------------------------------------|
d -----------------------------------------8-8-8-8-8-8-8-8-8-8--|
a -----66666--6*6*--6--6*6*--6--6*6*--6----6-6-6-6-6-6-6-6-6-6--|
E -----44444--4*4*--4--4*4*--4--4*4*--4-------------------------|
Comments