Saxon - Mototrcycle Man Chords & Tabs

 

Mototrcycle Man Chords & Tabs

Saxon Chords & Tabs

Version: 1 Type: Tab 0 ratings
1 star 2 stars 3 stars 4 stars 5 stars
comments

Mototrcycle Man Tab

   
                    SAXON - MOTORCYCLE MAN
                     From the Album WHEELS OF STEEL
                     Copyright 1980 EMI RECORDS
                     Version 1.0 - (MONTH - YEAR)

Transcribed by: RENE C

For Questions, Comments, Newest Version, or Corrections contact
(YOUR NAME): at (YOUR E-MAIL ADDRESS)

Check Out Death Warp, With More Transcriptions On It:
 http://www.wam.umd.edu/~ekubica

..  - palm mute          /  - slide up to
 \  - slide down to      ~  - vibrato
 h  - hammer on          b  - bend
 p  - pull off            Suffixes for bend
                          ph - pinch harmonic
                           f - full bend    h - half bend
*  - see comment           r - release      t - tap bend
X  - percussion mute       ~ - vibrato bend
@  - slight palm mute     () - ghost note, sustained note

Tune Gtr to E#


Riff A
|--------------------------------------------------------|
|-------------------------------------------------2------|
|-------------------------------------------------2------|
|--2-----2-----2-----2-----2-----2-----2-----2----2------| 
|--0-0-0-0-0-0-0-0-0-0-0-0-0-0-0-0-0-0-0-0-0-0----0------|
|--------------------------------------------------------|
[ Tab from: http://www.guitartabs.cc/tabs/s/saxon/mototrcycle_man_tab.html ]
Riff B
|------------------------------------|
|----------3-------------------------|
|--2-2--5--2--3p2p0--------2-2-------|
|--2-2--5--0--------3p2p0--2-2-------| 
|--0-0--3------------------0-0-------|
|------------------------------------|

Riff C
|-------------------------------------|
|------------8------------------8-----|
|--7---------7---------7--------7-----|
|--7---------5---------7--------5-----| 
|--5-------------------5--------------|
|-------------------------------------|

Riff D
|------------------|------------------|---------------------|
|------------------|------------------|---------------------|
|------------------|------------------|--6-6-6-6-6-6-6-6----|
|--4-4-4-4-4-4-4-4-|--7-7-7-7-7-7-7-7-|--4-4-4-4-4-4-4-4----| 
|--2-2-2-2-2-2-2-2-|--5-5-5-5-5-5-5-5-|---------------------|
|------------------|------------------|---------------------|

Riff E
|---------------------------------------|
|---------------------------------------|
|--77777777555555554444444433333333-----|
|--55555555333333332222222211111111-----|
|---------------------------------------|
|---------------------------------------|

Riff F
|-------------------------------------------------------|
|-------------------------------------------------------|
|-------------------------------------------------------|
|--7-7-7-7-7-7-5-5-5-5-5-5-4-4-4-4-4-4-3-3-3-3-3-3------|
|--5-5-5-5-5-5-3-3-3-3-3-3-2-2-2-2-2-2-1-1-1-1-1-1------|
|-------------------------------------------------------|

Coda
|-------------------------|
|-------------------------|
|--7--7-7--7-7--7-7-------|
|--7--7-7--7-7--7-7-------|
|--5--5-5--5-5--5-5-------|
|-------------------------|
Comments