Saxon - Frozen Rainbow Chords & Tabs

 

Frozen Rainbow Chords & Tabs

Saxon Chords & Tabs

Version: 1 Type: Tab 0 ratings
1 star 2 stars 3 stars 4 stars 5 stars
comments

Frozen Rainbow Tab

   
Frozen Raindow - Saxon 1979 - Gecc_70@hotmail.com




Riff A
|---------------------------------------------------|
|---------------------------------------------------|
|------7-----7-----9--------------------------------|
|------5-----5-----7--------------------------------|
|PM0-0---0-0---0-0----------------------------------|
|---------------------------------------------------|


Riff B
|---------------------------------------------------|
|(5)------------------------------------------------|
|-2-------------------------------------------------|
|-2-------------------2-----------------------------|
|-0--0-2-3--0-2-3-2---2-----------------------------|
|---------------------0-0-2-3-2-3-------------------|

Riff C
|---------------------------------------------------|
|---------------------------------------------------|
|-2-----------------2-------------------------------|
|-2--4--5--4--5--4--2-------------------------------|
|-0--4--5--4--5--4--0-------------------------------|
|----2--3--2--3--2----------------------------------|

Riff D Biff with the Acustic Guitar
|----------------3----------------------------------|
|---------1------2----------------------------------|
|---------0------3----------------------------------|
|--2------2------0----------------------------------|
|--2------3-----------------------------------------|
|--0------------------------------------------------|

Riff E Paul
|---------------------------------------------------|
|--12--10--8-8-------\8-7-5-3\7---------------------|
|---------------------------------------------------|
|---------------------------------------------------|
|---------------------------------------------------|
|---------------------------------------------------|

|---------------------------------------------------|
|--12--10--8-8-------\8-7-5-3\8---------------------|
|---------------------------------------------------|
|---------------------------------------------------|
|---------------------------------------------------|
|---------------------------------------------------|

|------------3--------------------------------------|
|------------2--------------------------------------|
|------------3--------------------------------------|
|-2----------0--------------------------------------|
|-2-------------------------------------------------|
|-0-------------------------------------------------|

[ Tab from: http://www.guitartabs.cc/tabs/s/saxon/frozen_rainbow_tab.html ]
Riff E Olivier
|---------------------------------------------------|
|---------------------------------------------------|
|---------------------------------------------------|
|--9---7---5-5-------\5-4-2-0-4---------------------|
|---------------------------------------------------|
|---------------------------------------------------|

|---------------------------------------------------|
|---------------------------------------------------|
|---------------------------------------------------|
|--9---7---5-5-------\5-4-2-0-5---------------------|
|---------------------------------------------------|
|---------------------------------------------------|

|------------3--------------------------------------|
|------------2--------------------------------------|
|------------3--------------------------------------|
|-2----------0--------------------------------------|
|-2-------------------------------------------------|
|-0-------------------------------------------------|


Riff E Biff Acustic

|------(3)----3--------------2----------------------|
|------(2)-1--2--(1)---------3----------------------|
|------(3)-0--3--(0)---------2----------------------|
|--(2)-----2-----(2)---------0----------------------|
|--(2)-----3-----(3)-(2)-(3)------------------------|
|--(0)----------------------------------------------|

|------(3)----3-------------------------------------|
|------(2)-1--2--(1)--------------------------------|
|------(3)-0--3--(0)--------------------------------|
|--(2)-----2-----(2)---------2----------------------|
|--(2)-----3-----(3)-(2)-(3)-2----------------------|
|--(0)-----------------------0----------------------|


|------------3--------------------------------------|
|------------2--------------------------------------|
|------------3--------------------------------------|
|-2----------0--------------------------------------|
|-2-------------------------------------------------|
|-0-------------------------------------------------|

Riff Solo
|------------3--------------------------------------|
|------------2--------------------------------------|
|------------3--------------------------------------|
|-2----------0---------2----------------------------|
|-2--------------------2----------------------------|
|-0--------------------0----------------------------|
                      x8

|----------3----------------------------------------|
|----------2----------------------------------------|
|-5--------3----------------------------------------|
|-5--------0-------2--------------------------------|
|-3----------------2--------------------------------|
|------------------0--------------------------------|
                  x8
Comments