Saxon - Freeway Mad Chords & Tabs

 

Freeway Mad Chords & Tabs

Saxon Chords & Tabs

Version: 1 Type: Tab 0 ratings
1 star 2 stars 3 stars 4 stars 5 stars
comments

Freeway Mad Tab

-------------------------------------------------------------------------------
			     FREEWAY MAD BY SAXON
                         From the wheels of steel album
    
-------------------------------------------------------------------------------
Tabbed by:Mike(Cosmicbluibanez)
Email:Mad4bets@aol.com

Tuning:Standard

This is my first go at a tab,Ive wanted this song for a long time so decided to have a
go,It sounds ok to me,Depending on your set up some of u may want to leave the open E
out of the first section if it sounds to heavy and just play the A&D strings,Experiment.
Also being the first tab ive submitted it may not come out right on the screen, But
listen to the track and you will get the timing,Its quite simple just pentatonic and 12
bar blues stuff.
[ Tab from: http://www.guitartabs.cc/tabs/s/saxon/freeway_mad_tab.html ]
e|---------------------------------------------------------------------------|
B|---------------------------------------------------------------------------|
G|---------------------------------------------------------------------------|
D|---9---9--9--9--9--7-------------------------------------------------------|
A|---7---7--7--7--7--5----------------------2 2 4 5 4 2----------------------|
E|---0---0--0--0--0--------5h7-5h7-5-3------0 0 0 0 0 0----------------------|

e|---------------------------------------------------------------------------|
B|---------------------------------------------------------------------------|
G|---------------------------------------------------------------------------|
D|---9---9--9--9--9--7------------------------------------------2 2 4 5 4 2--|
A|---7---7--7--7--7--5----------------------2 2 4 5 4 2---------0 0 0 0 0 0--|
E|---0---0--0--0--0--------5h7-5h7-5-3------0 0 0 0 0 0----------------------|

e|---------------------------------------------------------------------------|
B|---------------------------------------------------------------------------|
G|---------------------------------------------------------------------------|
D|--5h7-------------5------5h7------5h7 trill--------------------------------|
A|------5h7-----5h7---7--------5h7-------------------------------------------|
E|----------5h7--------------------------------------------------------------|

I'm movin down the freeway going 90 miles an hour.....ect ect...

Then repeat riff...
Comments