Saxon - Broken Heroes Chords & Tabs

 

Broken Heroes Chords & Tabs

Saxon Chords & Tabs

Version: 1 Type: Tab 0 ratings
1 star 2 stars 3 stars 4 stars 5 stars
comments

Broken Heroes Tab

   
----------------------------------------------------------------------------
			     BROKEN HEROES - Saxon
----------------------------------------------------------------------------
Tabbed by: Benjamin Gheysels
Date: 2005-8-3
Album: Innocence is no excuse

Tuning: standard tuning

| h  hammer-on
| p  pull-off
| ~  vibrato
| b  bend
| .  mute note
| ps pick scrape


Use distortion


Riff 1 (10"): play 2 times
e|--------------------------------------------------------------------------|
B|--------------------------------------------------------------------------|
G|--------------------------------------------------------------------------|
D|--7--9--------7--9--------7--9--------7--9----------5---------------------|
A|--------7-----------7-----------7-----------7-------3---------------------|
E|--------------------------------------------------------------------------|


Riff 2 (28"): (play A and B clean). Here is how to play Riff 2:
              A: 9x, b: 4x, A: 4x, b: 4x, A: 4x, Riff 1', A: 4x, C: 1x

     A           b             Riff 1'                           C
e|-----------|-------------|----------------------------------|-------------|
B|----0------|-----0-------|----------------------------------|-------------|
G|--0--------|---0---------|----------------------------------|-----4-------|
D|------2----|-------------|--7--9-------7--9--------7--9-----|--5--5----7--|
A|-----------|-------3-----|--------7----------7-----------7--|--3--3----5--|
E|-----------|-------------|----------------------------------|-------------|
    . . .        . . .

[ Tab from: http://www.guitartabs.cc/tabs/s/saxon/broken_heroes_tab.html ]
Riff 3 (1'08"): 4 times (play notes between brackets only first time!)
e|--------------------------------------------------------------------------|
B|--------------------------------------------------------------------------|
G|--------------------------------------------------------------------------|
D|-----------9-9-9-9-9--------5----------7----------------------------------|
A|-----------7-7-7-7-7stop----3--stop----5----------------------------------|
E|--(0-3-5)----------------------------------0-3-5-0------------------------|


Riff 2 (1'26"): A: 8x, b: 4x, A: 4x, b: 4x, A: 4x, Riff 1', A: 4x, C: 1x

Riff 3 (2'05"): 4 times

Riff 1" (2'23): repeat the notes of Riff 1 (not the chord!) 23 times. These
		are the chords for the background
e|--------------------------------------------------------------------------|
B|--------------------------------------------------------------------------|
G|--------------------------------------------------------------------------|
D|---9-----5-----9-----7----5----7------------------------------------------|
A|---7-----3-----7-----5----3----5------------------------------------------|
E|--------------------------------------------------------------------------|


Riff 3 (2'49"): 4 times (don't play the notes between brackets at all here!)

Riff 2 (3'06"): A: 8x, b: 4x, A: 4x, b: 4x, A: 4x, Riff 1', A: 4x, C: 1x

Riff 3 (3'46"): 4 times. Guitar 1 plays a solo here till the end of the song

Riff 1" (4'03"): 23 times

Riff 3 (4'30"): repeat till end


That's it! Enjoy!

============================================================================

============================================================================
Comments