Saw Doctors - What A Day Chords & Tabs

 

What A Day Chords & Tabs

Saw Doctors Chords & Tabs

Version: 1 Type: Tab 0 ratings
1 star 2 stars 3 stars 4 stars 5 stars
comments

What A Day Tab

   
----------------------------------------------------------------------------
			     WHAT A DAY - Saw Doctors
----------------------------------------------------------------------------
Tabbed by: Eryl Owen
Email: amosjunior6@hotmail.com

Tuning: standard

Intro

  G      A     C     G            A     C     G      
e|-7--3--5--0--3--5--3------7--3--5--0--3--5--3--2--3--5------------------|
B|----------------------3-------------------------------------------------|
G|------------------------------------------------------------------------|
D|------------------------------------------------------------------------|
A|------------------------------------------------------------------------|
E|------------------------------------------------------------------------|

  G      A     C     G
e|-7--3--5--0--3--5--3----------------------------------------------------|
B|----------------------3-------------------------------------------------|
G|------------------------------------------------------------------------|
D|------------------------------------------------------------------------|
A|------------------------------------------------------------------------|
E|------------------------------------------------------------------------|

  G         A       C                D
e|-7--7--3--5tr--7--8tr--10--12--14--15tr--17--15--14--12--10-------------|
B|------------------------------------------------------------------------|
G|------------------------------------------------------------------------|
D|------------------------------------------------------------------------|
A|------------------------------------------------------------------------|
E|------------------------------------------------------------------------|

G         C          D            G 
These few years have felt like a lifetime
G           C       D       G
She's given all her love to me
G         C       D      G 
Beside me sorting out my problems
G          C      D   C
Guiding me into maturity

C            D 
Why didn't I see



G      A    C         G
What a day, oh what a day

G      A    C         G
What a day, oh what a day

G      A    C         G
What a day, oh what a day

G      A    C    D        G
What a day, oh____ what a day


G             C       D            G
We've had our diff'rences and came through them
G            C        D        G
Stumbled and crawled along the way
G       C         D           G
But she means the whole world to me
G       C            D   C
I won't ever let her go away

C             D
And I need to say


G      A    C         G
What a day, oh what a day

G      A    C         G
What a day, oh what a day

G      A    C         G
What a day, oh what a day

G      A    C    D        G
What a day, oh____ what a day


  G      A     C     G            A     C     G      
e|-7--3--5--0--3--5--3------7--3--5--0--3--5--3--2--3--5------------------|
B|----------------------3-------------------------------------------------|
G|------------------------------------------------------------------------|
D|------------------------------------------------------------------------|
A|------------------------------------------------------------------------|
E|------------------------------------------------------------------------|
                     What a day!   
[ Tab from: http://www.guitartabs.cc/tabs/s/saw_doctors/what_a_day_tab.html ]
  G      A     C     G
e|-7--3--5--0--3--5--3----------------------------------------------------|
B|----------------------3-------------------------------------------------|
G|------------------------------------------------------------------------|
D|------------------------------------------------------------------------|
A|------------------------------------------------------------------------|
E|------------------------------------------------------------------------|

  G         A       C                D
e|-7--7--3--5tr--7--8tr--10--12--14--15tr--17--15--14--12--10-------------|
B|------------------------------------------------------------------------|
G|------------------------------------------------------------------------|
D|------------------------------------------------------------------------|
A|------------------------------------------------------------------------|
E|------------------------------------------------------------------------|


G             C          D            G  (fig.1)
But these few years have felt like a lifetime
G           C       D       G  (fig.1)
She's given all her love to me
G         C       D      G     (fig.1)
Beside me sorting out my problems
G         C      D   C  (fig.2)
Guided me into maturity

C            D 
Why didn't I see______ oh_______

Fig. 1

e|-----------------------------|
B|-----------------------------|
G|-----------------------------|
D|-----------------------------|
A|-----------------------------|
E|--/3--/10-10--\3--/10-10-----|

Fig. 1

e|--3--8--7--5--3--3h5p3-------|
B|-----------------------------|
G|-----------------------------|
D|-----------------------------|
A|-----------------------------|
E|-----------------------------|


G      A    C         G
What a day, oh what a day

G      A    C         G
What a day, oh what a day

G      A    C         G
What a day, oh what a day

G      A    C    D        G
What a day, oh____ what a day


  G      A     C     G            A     C     G      
e|-7--3--5--0--3--5--3------7--3--5--0--3--5--3--2--3--5------------------|
B|----------------------3-------------------------------------------------|
G|------------------------------------------------------------------------|
D|------------------------------------------------------------------------|
A|------------------------------------------------------------------------|
E|------------------------------------------------------------------------|
                     What a day!                What a day!

  G      A     C     G
e|-7--3--5--0--3--5--3----------------------------------------------------|
B|----------------------3-------------------------------------------------|
G|------------------------------------------------------------------------|
D|------------------------------------------------------------------------|
A|------------------------------------------------------------------------|
E|------------------------------------------------------------------------|
                     What a day!

  G         A       C                D
e|-7--7--3--5tr--7--8tr--10--12--14--15tr--17--15--14--12--10-------------|
B|------------------------------------------------------------------------|
G|------------------------------------------------------------------------|
D|------------------------------------------------------------------------|
A|------------------------------------------------------------------------|
E|------------------------------------------------------------------------|


  G
e|-3----------------------------------------------------------------------|
B|-3----------------------------------------------------------------------|
G|-4-----------------pick slide-------------------------------------------|
D|-5-----------------------------pick slide-------------------------------|
A|-5----------------------------------------------------------------------|
E|-3----------------------------------------------------------------------|


My first tab here, a fantastic song by the Saw Doctors, one of the best bands ever!
Email me with any problems or queries at amosjunior6@hotmail.com

Eryl Owen


| /     slide up
| \     slide down
| h     hammer-on
| p     pull-off
| ~     vibrato
| +     harmonic
| x     Mute note
| trem  Tremolo Picking
============================================================================
Comments