Savoy - Velvet Chords & Tabs

 

Velvet Chords & Tabs

Savoy Chords & Tabs

Version: 1 Type: Tab 1 rating
1 star 2 stars 3 stars 4 stars 5 stars
comments

Velvet Tab

   
#----------------------------------PLEASE NOTE---------------------------------#
#This file is the author's own work and represents their interpretation of the #
#song. You may only use this file for private study, scholarship, or research. #
#------------------------------------------------------------------------------#


Date: Sun, 19 Oct 1997 14:54:10 -0500
From: tommycl@ampersand.net
Subject: Subject: TAB: Velvet by Savoy

Velvet by Savoy (from the album: 'Mary is Coming')
tab by Tommy LeBoeuf


Capo on the 4th fret (a must!)

Dsus2   

G       320003
Dsus2   000230
D       000232
Em      022000
C       032010
Cmaj7   000230

[ Tab from: http://www.guitartabs.cc/tabs/s/savoy/velvet_tab.html ]
Intro (guitar solo)
                                  
        
|-----------|----------------|-------------|--------------------
|-----------|----------------|-------------|--------------------
|-----------|----------------|-------------|--------------------
|-5---------|-4--5--4-5-4----|-------------|--------------------
|-----------|--------------5-|--3----------|--2-----3--2-3-2----
|-----------|----------------|-------------|------------------3-


            Dsus2               Am      Cmaj7-C-Cmaj7-Open to G
|-----------|-----0--0-2----|-----------|---------------
|-----------|--3----------3-|---0-2-----|--0--2---0--0--
|-----------|--2------------|---0-3-----|--0--0---0--0--
|-----------|--0------------|---0-3-----|--2--2---2--0--
|-----------|--0------------|-----------|--3--3---3--0--
|---3-------|---------------|-----------|---------------



note:  when play the D, Dsus2, AND D chord-sequence, just lift

the number 2 finger (for the Dsus2), and hammer it back on for

the D chord!



Have a nice day!

Tommy



p.s.  I love this song......Her skin is like velvet!
Comments