Saves The Day - Tomorrow Too Late Chords & Tabs

 

Tomorrow Too Late Chords & Tabs

Saves The Day Chords & Tabs

Version: 1 Type: Tab 0 ratings
1 star 2 stars 3 stars 4 stars 5 stars
comments

Tomorrow Too Late Tab

Saves The Day - Tomorrow Too Late
from "In Reverie"

Tabbed by : dave - daveo@bored.com


Okay, I'm sick and tired of there being NO TAB on the internet for this song.  It's a 
song.  I've tabbed out everything that's necessary to the song and left out extra stuff 
little flairs and solos.  Figure those out on your own.

BTW - To avoid confusion (and possibly also cause it, at least to those who don't read 
I've denoted the 10th fret as A and the 11th as B - it's just easier to keep a consistent 
type thing going without having some two-space tab #s.

Listen to the song for details on number of repeats, when to play what, and minor stuff 
when to strum slowly (like in the intro), etc.


Intro:
[ Tab from: http://www.guitartabs.cc/tabs/s/saves_the_day/tomorrow_too_late_tab.html ]
--8-------7-------7------------------------------------------|
--x-------x-------x---------------4-------6-------8-------7--|
--8-------7-------7-------3---3---5-------7-------8-------8--|
--6-------6-------5-------5---5---6-------6-------8-------x--|
--------------------------3---5---6-------5-------6-------6--|
------------------------------3---4--------------------------|
  |       |       |       |   |   |       |       |       |
  1       3       1       3   4   1       3       1       3 // repeat

Chorus:

--3--3--3---3-3-3-3-4-4-----3--------------|
--4--4--4---4-4-3-3-4-4-----4-6---9--9--9--|
--3--3--3---3-3-3-3-5-5-----3-5-7-8--8--8--|
--5--5--5---5-5-3-3-6-6-----5-6-6-A--A--A--|
--3-3-3-3-3-3-3-5-5-6-6-----3-5-8-8-8-8-B--|
----------------3-3-4-4---------6----------|
  |   |   |   |   |   |   |   |   |   |   (only two beats this bar)
  1   2   3   4   1   2   3   4   1   2 // repeat

Chorus 2:

"feels like a million years..."

--3-4-4-3-3-1-1---4---4---4-----3--|
--3-4-4-3-3-1-1---4---4---4-----3--|
--3-5-5-3-3-1-1---5---5---5-----3--|
--3-6-6-3-3-3-3---6---6---6-----3--|
--5-6-6-5-5-3-3---6---6---6-----5--|
--3-4-4-3-3-1-1---4---4---4-----3--|
  |   |   |   |   |   |   |   |
  1   2   3   4   1   2   3   4 + //


enjoy.  any questions/corrections/insults, email me.
Comments