Saves The Day - This Is Not An Exit Chords & Tabs

 

This Is Not An Exit Chords & Tabs

Saves The Day Chords & Tabs

Version: 3 Type: Tab 0 ratings
1 star 2 stars 3 stars 4 stars 5 stars
comments

This Is Not An Exit Tab

   
THIS IS NOT AN EXIT BY: SAVES THE DAY
TABBED BY: PAUL DICK: toad-666@cogeco.ca

INTRO and VERSE 1
?Tonight will be??
    F      F   Am         	  F      G   F
E----------1---0-----------------------3---1---------------------------
B----------1---1-----------------------3---1---------------------------
G----------2---2---repeat-3X-----------0---2---------------------------
D-----0-2--3---2------------------0-2--0---3---------------------------
A---3------3---0----------------3------2---3---------------------------
E--------------------------------------3-------------------------------

CHORUS
?Sail, belly up to the clouds??
    C    Am   F    G
E---0----0----1----3---------------------------------------------------
B---1----1----1----3---------------------------------------------------
G---0----2----2----0---------------------------------------------------
D---2----2----3----0---------------------------------------------------
A---3----0----3----2---------------------------------------------------
E------------------3---------------------------------------------------

VERSE 2
(1st part is same as verse 1)
?And all the wasted nights??
[ Tab from: http://www.guitartabs.cc/tabs/s/saves_the_day/this_is_not_an_exit_tab_ver_3.html ]
(second part is as follows)
?of the waves??
    F        F   Am  Am			 F        G  F
E------------1---0---0------------------------3--1---------------------
B------------1---1---1------------------------3--1---------------------
G?--------0--2---2---2--- repeat-3X--------0--0--2---------------------
D-----0-2----3---2---2-----------------0-2----0--3---------------------
A---3--------3---0---0---------------3--------2--3---------------------
E---------------------------------------------3------------------------

CHORUS

VERSE 3
?And if the hook sets in??
    Am     Am    G     F        F     G     Am     Am    G     F   G
E---0--0---0--0--3--3--1--1-----1--1--3--3--5?-5\--0--0--3--3--1---3---
B---1--1---1--1--3--3--1--1-----1--1--3--3--5?-5\--1--1--3--3--1---3---
G---2--2---2--2--0--0?-2--2-----2--2--0--0--5?-5\--2--2--0--0?-2---0---
D---2--2---2--2--0--0--3--3-----3--3--0--0--7?-7\--2--2--0--0--3---0---
A---0--0---0--0--2--2--3--3-----3--3--2--2--7?-7\--0--0--2--2--3---2---
E----------------3--3-----------------3--3--5?-5\--------3--3------3---

Second/Third Part is Like Verse 1
?Despair??

Fourth is like part 2 of verse 2
?You can take your rudder??

The rest of the song is just the chorus part over and over, ending
with the following chords: C Am F G C
Comments