Saves The Day - This Is Not An Exit Chords & Tabs

 

This Is Not An Exit Chords & Tabs

Saves The Day Chords & Tabs

Version: 2 Type: Tab 0 ratings
1 star 2 stars 3 stars 4 stars 5 stars
comments

This Is Not An Exit Tab

Saves The Day - This is not an exit

Tabbed by Sean Merriam
s21s88@aol.com

Verse
e|-----------------------------------------------------------------
B|-----------------------------------------------------------------
G|-----------------------------------------------------------------
D|-----2--3--7---3---------2--5--3---------------------------------
A|-3-5----3--7---------3-5----5--3---1-----------------------------
E|--------1--5----------------3--1---------------------------------
[ Tab from: http://www.guitartabs.cc/tabs/s/saves_the_day/this_is_not_an_exit_tab_ver_2.html ]
Chorus
e|-----------------------------------------------------------------
B|-----------------------------------------------------------------
G|-5---------------------------------------------------------------
D|-5--7--3--5------------------------------------------------------
A|-3--7--3--5------------------------------------------------------
E|----5--1--3------------------------------------------------------

Bridge:
e|-----------------------------------------------------------------
B|-----------------------------------------------------------------
G|-----------------------------------------------------------------
D|-7-7--2-2--3-3----3-3--5-5--7----7-7--2-2--3----5----------------
A|-7-7--2-2--3-3----3-3--5-5--7----7-7--2-2--3----5----------------
E|-5-5--0-0--1-1----1-1--3-3--5----5-5--0-0--1----3----------------
Comments