Saves The Day - The Vast Spoils Of America Chords & Tabs

 

The Vast Spoils Of America Chords & Tabs

Saves The Day Chords & Tabs

Version: 1 Type: Tab 0 ratings
1 star 2 stars 3 stars 4 stars 5 stars
comments

The Vast Spoils Of America Tab

   
THE VAST SPOILS OF AMERICA - Saves The Day

Transcribed By: Jason 'Sweaty Nuts' Ramsay

Tune half step down

riff 1
eb|------------------|
bb|------------------|
gb|-9-9--7/9\7-------|
db|-------------5----|
ab|-7-7--5/7\5--5----|
Eb|-------------3----|

Verse

eb|---------------------|
bb|---------------------|
gb|-9--7-----5----------|
db|-9--7--5--5----------|
ab|-7--5--5--3----------|x2
Eb|-------3-------------|
(not strum pattern)
After the last cord the lead is

eb|------------|
bb|------------|
gb|------------|
db|-3/-5/-2----|
ab|------------|
Eb|------------|
At the end of the verse then do riff 1

Chorus

eb|------------------|
bb|------------------|
gb|-7----------------|
db|-7--7--9-10-------|
ab|-5--7--9-10-------|
Eb|----5--7-8--------|

eb|-------------------------|
bb|-------------------------|
gb|7-7/-9-9-pause-7/--9/--7-|
db|-------------------------|
ab|5-5/-7-7-------5/--7/--5-|
Eb|-------------------------|

eb|------------------|
bb|------------------|
gb|--7---------------|
db|--7-7-9-10--------|
ab|--5-7-9-10--------|
Eb|----5-7-8---------|
then back to verse

Bridge
eb|---------------------|
bb|---------------------|
gb|---------------------|
db|--7------9-----10----|
ab|--7--x6--9-x1--10-x6-|
Eb|--5------7-----8-----|
sometimes.....

eb|------------------|
bb|------------------|
gb|-9--7--5----------|
db|-9--7--5----------|
ab|-7--5--3----------|
Eb|------------------|
can open up your eyes
[ Tab from: http://www.guitartabs.cc/tabs/s/saves_the_day/the_vast_spoils_of_america_tab.html ]
***eb|---------------------|
   bb|---------------------|
   gb|---------------------|
   db|--7------9-----10----|
   ab|--7--x4--9-x1--10-x4-|
   Eb|--5------7-----8-----|
             thats when...
eb|------------------|
bb|------------------|
gb|-9--7--5----------|
db|-9--7--5----------|
ab|-7--5--3----------|
Eb|------------------|
trees seem....
^^^eb|------------|
   bb|------------|
   gb|------------|
   db|-3/-5/-2----|
   ab|------------|
   Eb|------------|
repeat from ***
but dont play ^^^
back to verse
then chorus
then play verse just not palm muted and the lead is below
eb|----------------------------------------------------------|
bb|-4-4/-5-5-5-5-5-5x2-6-6/-7-7-7-7-7-7x2-7-7/-8-8-8-8-8-8x2-|
gb|----------------------------------------------------------|
db|----------------------------------------------------------|
ab|----------------------------------------------------------|
Eb|----------------------------------------------------------|
                         with bend on 10th and 12th
eb|-8-8-8-8-8-8---10-10-10-10-10-10---12-12-12-12-12-12-------|
bb|-----------------------------------------------------------|
gb|-----------------------------------------------------------|
db|-----------------------------------------------------------|
ab|-----------------------------------------------------------|
Eb|-----------------------------------------------------------|
                           with bend on 10th and 12th
the last bit is
eb|-12-10-8-|
bb|---------|
gb|---------|
db|---------|
ab|---------|
Eb|---------|

eb|-----------|
bb|-----------|
gb|--4-5h-4-4-|
db|-----------|
ab|-----------|
Eb|-----------|

for rhythm the end is
eb|----------|
bb|----------|
gb|----------|
db|-5-4--2---|
ab|-5-4--2---|
Eb|-3-2--0---|
slow
Comments