Saves The Day - Take Our Cars Now Chords & Tabs

 

Take Our Cars Now Chords & Tabs

Saves The Day Chords & Tabs

Version: 3 Type: Tab 0 ratings
1 star 2 stars 3 stars 4 stars 5 stars
comments

Take Our Cars Now Tab

----------------------------------------------------------------------------
	          Take Our Cars Now - Saves The Day
----------------------------------------------------------------------------
Tabbed by: Shotingthepilot
Tuning: Standard (EBGDAE) 

Note: I noticed the tab before this didnt have the bridge so i thought id put it here.
also the mutes sounds more like pick scratches. great song by one of the first emo bands
and in my opinion still one of the best. 

INTRO
E|---------------------------|------------------------------|
B|--1---1-------------1------|--1---1-------------1---------|
G|--0h2-0-------0h2----------|--0h2-0-------0h2-------------|
D|---------2-3---------------|---------2-3------------------|
A|----------------------3----|----------------------0-------|
E|---------------------------|------------------------------|

E|---------------------------|------------------------------|
B|--1---1-------------1------|--1---1-------------1---------|
G|--0h2-0-------0h2----------|--0h2-0-------0h2-------------|
D|---------2-3---------------|---------2-3----------3-------|
A|----------------------3----|------------------------------|
E|---------------------------|------------------------------|


VERSE x4 (i know it looks spaced out but chris strums the chords fast)
 " Dont you remember the last time we were speeding down this high way..."
E|------------------------------------------------------------------------|
B|------------------------------------------------------------------------|
G|------------5-x-x-x-----------------------------------------------------|
D|------------5-x-x-x---5-x-x-x------3-x-x-x-x-----------3-x-x-x-x--------  
A|------------3-x-x-x---5-x-x-x------1-x-x-x-x-----------1-x-x-x-x--------|
E|----------------------3-x-x-x------1-x-x-x-x-----------1-x-x-x-x--------|


CHORUS x4
[ Tab from: http://www.guitartabs.cc/tabs/s/saves_the_day/take_our_cars_now_tab_ver_3.html ]
  "And i told you i didnt want my picture taken..."
E|--------------------------------------------------------------------|
B|--------------------------------------------------------------------|
G|-----------------5-5-5--5-5-5---------------------------------------|
D|--7-7-7--7-7-7---5-5-5--5-5-5---5-5-5--5-5-5----3-3-3--3-3-3--------|
A|--7-7-7--7-7-7---3-3-3--3-3-3---5-5-5--5-5-5----3-3-3--3-3-3--------|
E|--5-5-5--5-5-5------------------3-3-3--3-3-3----1-1-1--1-1-1--------|

REPEAT VERSE BAR 4 TIMES 
THEN CHORUS BAR 4 TIMES
THEEEEEEENNNNNN!!!!! 
ON THE SAME CHORD IT GOES IN TO THE BRIDGE.

BRIDGE (play once and figure out the strumming your self)

" Maaaaybeee youll never remember me... maaaaaaaybeeeeee........ 

E|------------------------------------------------------------------|
B|------------------------------------------------------------------|
G|------------------------------------------------------------------|
D|--3--------------5------------------3-----------------------------|
A|--1(10x)---------3(10x)-------------1(10x)------------------------|
E|--1--------------3------------------1-----------------------------|
 
contin.. ( again spaced just for the tab)

"  My - face - will - loose - these..... scars sometimes they keep me.." 
E|------------------------------------------------------------------|
B|------------------------------------------------------------------|
G|------------------------------------------------------------------|
D|-5----5------5------5-------5----------3-------------5------------|
A|-3----5------5------5-------5----------3(10x)--------5(10x)-------|
E|-3----3------3------3-------3----------1-------------3------------|

bridge continued. 

" duck under the covers and wince when i see the light"

E|-----------------------------------------------------------|
B|-----------------------------------------------------------|
G|-----------------------------------------------------------|
D|-3-------------------3-------------------------------------|
A|-1(6x)---------------1-(6x)--------------------------------|
E|-1-------------------1-------------------------------------|

THEN IT GOES BACK INTO THE VERSE BAR 4 TIMES BUT ITS PLAYED SUPER QUITELY SLOWLY BLUID
UP VOLUME AS YOU REACH THE FINAL CHORUS (listen to the song youll know what i mean.)
THEN PLAY THE CHORUS BAR 4 TIMES

THEN END THE SONG WITH

E|--------|
B|--------|
G|---5----|
D|---5----|
A|---3----|
E|--------|

Hope this was helpful to someone and heres the lyrics cause i hate it when they dont put
them on here and it helps.. if theres any mistakes well submit a version 3?
Comments