Saves The Day - Rocks Tonic Juice Magic Chords & Tabs

 

Rocks Tonic Juice Magic Chords & Tabs

Saves The Day Chords & Tabs

Version: 1 Type: Tab 1 rating
1 star 2 stars 3 stars 4 stars 5 stars
comments

Rocks Tonic Juice Magic Tab

Rocks Tonic Juice Magic by Saves the Day
Tabbed by Greg Mitchell


Verse
e|----------------------------------------------------------------|
B|----------------------------------------------------------------|
G|-------------3-5-6-6-6-6-6------------------5-6-8-8-8-8-8--6-5--|
D|--3-3-3-3-3--3/5/6-6-6-6-6--10-8-6-6-6-6-6--5/6/8-8-8-8-8--6\5--|
A|--3-3-3-3-3--1/3/4-4-4-4-4--10\8\6-6-6-6-6--3/4/6-6-6-6-6--4\3--|
E|--1-1-1-1-1------------------8\6\4-4-4-4-4----------------------| 
    ...p.m...      ...p.m...       ...p.m...      ...p.m...

Bridge
e|----------------------------------------------------|
B|-------6----------------------------6---------------|
G|----------8--6h8--8~-------------------8--6h8--8~---|
D|--3~-----------------6~--------3~-------------------|
A|--3~-----------------6~--------3~-------------------|
E|--1~-----------------4~--------1~-------------------|

Chorus
e|--------------------------------------------------------|
B|--------------------------------------------------------|
G|-----------6-6-6-6-6-6-6-----------------8-8-8-8-8-8-8--|
D|--3-3-3----6-6-6-6-6-6-6--6-6-6-6-6-6-6--8-8-8-8-8-8-8--|
A|--3-3-3----4-4-4-4-4-4-4--6-6-6-6-6-6-6--6-6-6-6-6-6-6--|
E|--1-1-1-------------------4-4-4-4-4-4-4-----------------|

e|-----------------------------------------------------------------|
B|-----------------------------------------------------------------|
G|-----------------------------------------------------------------|
D|--10-10-10-10-10-10-10--6-6-6-6-6-6-6-----------------8-8-8-8-8--|
A|---8--8--8--8--8--8--8--4-4-4-4-4-4-4--6-6-6-6-6-6-6--6-6-6-6-6--|
E|---------------------------------------4-4-4-4-4-4-4-------------|
[ Tab from: http://www.guitartabs.cc/tabs/s/saves_the_day/rocks_tonic_juice_magic_tab.html ]
e|------------------------------------------------------|
B|------------------------------------------------------|
G|------------------------------------------------------|
D|---------6-6-6-6-6-6-6-----------------8-8-8-8-8-8-8--|
A|--3-3-3--4-4-4-4-4-4-4--6-6-6-6-6-6-6--6-6-6-6-6-6-6--|
E|--1-1-1-----------------4-4-4-4-4-4-4-----------------|

e|--------------------------------------------|
B|--------------------------------------------|
G|--------------------------------------------|
D|--10-10-10-10-10-10-10--6-6-6-6-6-6-6-------|
A|---8--8--8--8--8--8--8--4-4-4-4-4-4-4--6~---|
E|---------------------------------------3~---|

Outro
e|------------------------------------------------------|
B|------------------------------------------------------|
G|------------------------------------------------------|
D|-------------------6-6-6-6-6-6-6-6-----------8-8-8-8--|
A|--6-6-6-6-6-6-6-6--4-4-4-4-4-4-4-4--3-3-3-3--6-6-6-6--|
E|--4-4-4-4\3-3-3-3-------------------1-1-1-1-----------|

Fill
e|----------------------|
B|----------------------|
G|----------------------|
D|-------5-5--8-8--6-6--|
A|--6-6-----------------|
E|----------------------|
 .........p.m............
e|----------------------------------------------------------|
B|----------------------------------------------------------|
G|----------------------------------------------------------|
D|-------------------6-6-6-6-6-6-6-6--10-10-10-10--8-8-8-8--|
A|--6-6-6-6-6-6-6-6--4-4-4-4-4-4-4-4---8--8--8--8--6-6-6-6--|
E|--4-4-4-4\3-3-3-3-----------------------------------------|

e|-----------------|
B|-----------------|
G|-----------------|
D|-------5--6~-----|
A|--3-3--3--4~-----|
E|--1-1------------|
Comments