Saves The Day - Holly Hox Forget Me Not Chords & Tabs

 

Holly Hox Forget Me Not Chords & Tabs

Saves The Day Chords & Tabs

Version: 1 Type: Tab 0 ratings
1 star 2 stars 3 stars 4 stars 5 stars
comments

Holly Hox Forget Me Not Tab

HOLLY HOX, FORGET ME NOT - Saves The Day

By:Emo Marco   Fallback462@yahoo.com

e|-0-------------------------------------------------------------------------|
B|-0-------------------------------------------------------------------------|
G|-0-----------4-4-4-4-6-6-6-9-9-9-------------------------------------------|
D|-0-----------4-4-4-4-6-6-6-9-9-9-------------------------------------------|
A|-0-----------2-2-2-2-4-4-4-7-7-7-------------------------------------------|
E|-0-------------------------------------------------------------------------|

     let ring
e|---------------------------------------------------------------------------|
B|---------------------------------------------------------------------------|
G|--11-11-11-11-13-11-9-9-9-9-11-9-8-8-8-8-9-8-4-4-4-4-----------------------|
D|---------------------------------------------------------------------------|
A|--9--9--9--9--11-9--7-7-7-7-9--7-6-6-6-6-7-6-2-2-2-2-----------------------|
E|---------------------------------------------------------------------------|

     2nd Guitar
e|---------------------------------------------------------------------------|
B|---------------------------------------------------------------------------|
G|--4-4-4-4-4-4-6-6-6-6-6-6--------------------------------------------------|
D|--4-4-4-4-4-4-6-6-6-6-6-6-2-2-2-2-2-2--------------------------------------|
A|--2-2-2-2-2-2-4-4-4-4-4-4-2-2-2-2-2-2--------------------------------------|
E|--------------------------0-0-0-0-0-0--------------------------------------|
[ Tab from: http://www.guitartabs.cc/tabs/s/saves_the_day/holly_hox_forget_me_not_tab.html ]
   verse x 4
e|---------------------------------------------------------------------------|
B|---------------------------------------------------------------------------|
G|-------------------------------------------------8-9-11-9------------------|
D|-----------------2-2-2-2-2-2-2-2-4-4-4-4-4-4-4-4---------------------------|
A|-6-6-6-6-6-6-6-6-2-2-2-2-2-2-2-2-4-4-4-4-4-4-4-4-6-7-9--7------------------|
E|-4-4-4-4-4-4-4-4-0-0-0-0-0-0-0-0-2-2-2-2-2-2-2-2---------------------------|
   p. m.------------------------------------------

e|---------------------------------------------------------------------------|
B|---------------------------------------------------------------------------|
G|---------------------------------------------------------------------------|
D|---------------------------------------------------------------------------|
A|6-6-6-6-6-6-6-6-2-2-2-2-2-2-2-2-4-4-4-4-4-4-4-4-2-2-2-2-2-2-2-2------------|
E|4-4-4-4-4-4-4-4-0-0-0-0-0-0-0-0-2-2-2-2-2-2-2-2-0-0-0-0-0-0-0-0------------|
  p.m.-----------------------------------------------------------

e|---------------------------------------------------------------------------|
B|---------------------------------------------------------------------------|
G|---------------------------------------------------------------------------|
D|-4-4---6-6-6-2-2-2-2---2-2-2-2-2-2---2-2-2-2-2-----------------------------|
A|-2-2-4-4-4-4-2-2-2-2---2-2-2-2-2-2---2-2-2-2-2-----------------------------|
E|-----2-------0-0-0-0---0-0-0-0-0-0---0-0-0-0-0-----------------------------|
breakdown

e|-----x-x-----x-x-----x-x-----x-x-----x-x-----x-x---------------------------|
B|-----x-x-----x-x-----x-x-----x-x-----x-x-----x-x---------------------------|
G|-9-9-x-x-9-9-x-x-9-9-x-x-9-9-x-x-9-9-x-x-9-9-x-x---------------------------|
D|-----x-x-----x-x-----x-x-----x-x-----x-x-----x-x---------------------------|
A|-7-7-x-x-7-7-x-x-7-7-x-x-7-7-x-x-7-7-x-x-7-7-x-x---------------------------|
E|-----x-x-----x-x-----x-x-----x-x-----x-x-----x-x---------------------------|
2nd guitar

song repeats with the same parts in different order. enjoy.
Comments