Saves The Day - Hold Chords & Tabs

 

Hold Chords & Tabs

Saves The Day Chords & Tabs

Version: 3 Type: Tab 0 ratings
1 star 2 stars 3 stars 4 stars 5 stars
comments

Hold Tab

   
Band:Saves the day
Song:Hold (acoustic)
Tabbed by:Hampus_enroth@hotmail.com
-----------------------------------------------------------------------------
Drop D tunning!!!

Verse riff
e]----------------------------------}
b]----------------------------------}
g]----------------------------------}
d]-4-4--3-3--4-4--4-4-----3-3-68689-}
a]-4-4--4-4--6-6--2-2-4-4-4-4-68689-}
D]-4-4----------------4-4-----68689-}

Pre-chorus
e]-----------------}
b]-----------------}
g]-----------------}
d]-6-6-6-6-9-9-9-9-}
a]-6-6-6-6-9-9-9-9-}
d]-6-6-6-6-9-9-9-9-}
[ Tab from: http://www.guitartabs.cc/tabs/s/saves_the_day/hold_tab_ver_3.html ]
Chorus
e]-------------------------------------------------------------------------
b]----------------------------part-B---------------------------------------
g]---------------------------------*---------------------------------------
d]-4-4-4-4-3-3-3-3-4-4-4-4-4-4-4-4-4-4-4-4-3-3-3-3-4-4-4-4-8-8-8-8-4-4-4-4-
a]-4-4-4-4-4-4-4-4-2-2-2-2-2-2-2-2-1-1-1-1-4-4-4-4-6-6-6-6-8-8-8-8-2-2-2-2-
D]-4-4-4-4-------------------------1-1-1-1-----------------8-8-8-8---------

e]---------}
b]---------}
g]---------}
d]-3-3-3-3-}
a]-4-4-4-4-}
D]---------}

The last time the chorus play it repeats itself from "part B"
well well.... you know how it goes.... as far as I know this is the rigth riffs
(at leats the Primitive parts of them)
Punk rock forever
Comments