Saves The Day - Firefly Chords & Tabs

 

Firefly Chords & Tabs

Saves The Day Chords & Tabs

Version: 1 Type: Tab 0 ratings
1 star 2 stars 3 stars 4 stars 5 stars
comments

Firefly Tab

Ok this is Firefly by Saves the Day...My name's Greg Mitchell you can
e-mail me at XvCantSlowDownvX@Aol.com.


verse 
e|------O-------------O---------------O--------------------------------------| 
B|------O-------------O---------------O--------------------------------------| 
G|--4---1--4--3---4---1--3---9--------1--3-----------------------------------| 
D|--6---2--4--4---6---2--4---9--9--6--2--4-----------------------------------| 
A|--6---2--2--4---6---2--4--/7--6--6--2--4-----------------------------------| 
E|-(4)--O--2--2--(4)--O--2---------4--O--2-----------------------------------| 

pre-chorus (palm muted) 
e|---------------------------------------------------------------------------| 
B|---------------------------------------------------------------------------| 
G|---------------------------------------------------------------------------| 
D|-----9--6--9---------------------------------------------------------------| 
A|--9--7--4--7---------------------------------------------------------------| 
E|--7------------------------------------------------------------------------| 
[ Tab from: http://www.guitartabs.cc/tabs/s/saves_the_day/firefly_tab.html ]
slow end part after the 2nd pre-chorus 
e|-------------------------------O-------------------------------------------| 
B|-----------------------2h4--2--O-------------2h4--2------------------------| 
G|--------4--3-----3--4--4----4--1--1h2--1--4--4----4--3bend up and back down| 
D|-----4-----4--4-----4----------2--2----2--4--------------------------------| 
A|-----------X--------2----------2----------2--------------------------------| 
E|--4--------2---------------------------------------------------------------| 

"because to me you are the light..." 
e|---------------------------------------------------------------------------| 
B|---------------------------------------------------------------------------| 
G|-----------------3--------1--------------------------3--------1------------| 
D|--------4-----4--------------2--------------4-----4--------------2---------| 
A|-----2-----------------2--------2--------2-----------------2---------------| 
E|--4--------2--------O--------------O--4--------2--------O------------------| 

e|---------------------------------------------O--O----O---------------------| 
B|------------------------------------------------2/4--O---------------------| 
G|--3/4--3----------------------------------1--------------------------------| 
D|----------4--2h1-----------------------2----------------1-----------------2| 
A|------------------2-----4--1--------2----------------------2-----4--1-----2| 
E|---------------------4--------2--O----------------------------4--------2--O| 

than finish the song by playing these chords 
e|-------(O)-----------------------------------------------------------------| 
B|--O--O--O------------------------------------------------------------------| 
G|--4--3--1------------------------------------------------------------------| 
D|--4--4--2------------------------------------------------------------------| 
A|--x--X--2------------------------------------------------------------------| 
E|--4--2--O------------------------------------------------------------------| 
Comments