Saves The Day - Cars And Calories Chords & Tabs

 

Cars And Calories Chords & Tabs

Saves The Day Chords & Tabs

Version: 1 Type: Bass Tab 0 ratings
1 star 2 stars 3 stars 4 stars 5 stars
comments

Cars And Calories Bass Tab

CARS AND CALORIES - Saves The Day

By: Slick_Shoe@truepunk.com

*Listen to the song to find out how many times to play each note, i am not 
going to count them all.

Verse-(on the first two times the guitar plays a "c" before you come in
G|---------------------------------------------------------------------------|
D|---------------------------------------------------------------------------|
A|-----------------------------------------------------3---------------------|
E|-555-333-555-1-555-3-111-555-0-111-555-3-1111-555-71-----------------------
[ Tab from: http://www.guitartabs.cc/tabs/s/saves_the_day/cars_and_calories_btab.html ]
Chorus
G|---------------------------------------------------------------------------|
D|---------------------------------------------------------------------------|
A|-------33------------------------------------------------------------------|
E|-55-7-1--------------------------------------------------------------------|

Bridge
G|---------------------------------------------------------------------------|
D|---------------------------------------------------------------------------|
A|-3333333333-22-3------Play A "C" a whole mess of times right after---------|
E|---------------------------------------------------------------------------|
Im about 90% of this. it should get you started anyway.
Comments