Saves The Day - At Your Funeral Chords & Tabs

 

At Your Funeral Chords & Tabs

Saves The Day Chords & Tabs

Version: 4 Type: Tab 0 ratings
1 star 2 stars 3 stars 4 stars 5 stars
comments

At Your Funeral Tab

   
Band: Saves the Day
Song: At Your Funeral
Album: Stay What You Are
Tabbed by: Chris Biedenbach

This is exactly how you play the song, you can argue with me if you
want at cjbiedenbach@csupomona.edu, but it won't do any good.
Go out and buy any of their cds! Indie Rock is awesome!

* = play chord on A-string
[ Tab from: http://www.guitartabs.cc/tabs/s/saves_the_day/at_your_funeral_tab_ver_4.html ]
Intro:
e|-----------------------------------------------------|
b|-----------------------------------------------------|
g|-----------------------------------------------------|
d|-12---------------11----------------5------------4---|
a|-----------------------------------------------------|
e|----------------------------------0------------3-----|
   This song will become the anthem of your underground.
e|-----------------------------------------------------------------|
b|--------------------------------------------7--------------------|
g|----------------------------------------7------------------------|
d|-12----------------11---------------5----------------4---5---7---|
a|-----------------------------------------------------------------|
e|--------------------------------0----------------3---------------|
   You're two floors down getting high in the back room.
e|-2---------------------0------------------------------------------------|
b|-3---------------------2-------------------------7----------------------|
g|-2---------------------2---------------------7--------------------------|
d|-0---------------------2-----------------5------------------4---5---7---|
a|-----------------------0------------------------------------------------|
e|-------------------------------------0-------------------3--------------|
   If I flooded out your house, do you think you'd make it out,
                A                  Em                D      A
   or would you burn up before the water filled your lu.....ngs?

Verse 1:(power chords)
D                A               E*           G
This song will become the anthem of your underground.
D                 A            E*               G*
You're two floors down getting high in the back room.
D                     A             E*                  G
If I flooded out your house, do you think you'd make it out,
        (open position)
             A                  Em                D      A
or would you burn up before the water filled your lu.....ngs?

Chorus: (power chords)
G   D           A          G        D  A
And at your funeral I will sing the requiem.
G   D            A                       G       D         A
I'd offer you my hand, it would hurt too much to watch you die.

Verse 2: (power chords)
D           A                     E*                G
And you can bet when we mourn the death of you that night
D                     A             E*            G*
they'll lay me on the dinner table, I will be the pig
         (open position)
         A           Em                   D               A
with the apple in my mouth, the food that celebrates your end.
Comments