Saves The Day - At Your Funeral Chords & Tabs

 

At Your Funeral Chords & Tabs

Saves The Day Chords & Tabs

Version: 2 Type: Tab 0 ratings
1 star 2 stars 3 stars 4 stars 5 stars
comments

At Your Funeral Tab

   
Band: Saves the Day
Song: At Your Funeral
Album: Stay What You Are
Tabbed by: Jon Shaft

Intro:
e|-----------------------------------------------------|
b|-----------------------------------------------------|
g|-----------------------------------------------------|
d|-12---------------11----------------5------------4---|
a|-----------------------------------------------------|
e|----------------------------------0------------3-----|
   This song will become the anthem of your underground.

e|-----------------------------------------------------------------|
b|--------------------------------------------7--------------------|
g|----------------------------------------7------------------------|
d|-12----------------11---------------5----------------4---5---7---|
a|-----------------------------------------------------------------|
e|--------------------------------0----------------3---------------|
   You're two floors down getting high in the back room.

e|-2---------------------0------------------------------------------------|
b|-3---------------------2-------------------------7----------------------|
g|-2---------------------2---------------------7--------------------------|
d|-0---------------------2-----------------5------------------4---5---7---|
a|-----------------------0------------------------------------------------|
e|-------------------------------------0-------------------3--------------|
   If I flooded out your house, do you think you'd make it out,
                A                  Em                D      A
   or would you burn up before the water filled your lu.....ngs?
   G   D           A          G        D  A
   And at your funeral I will sing the requiem.


Verse 1:(power chords)
D                A               E            G
This song will become the anthem of your underground.
D                 A            E                G 
You're two floors down getting high in the back room.
D                     A             E                   G
If I flooded out your house, do you think you'd make it out,
              A                  Em                D      A
or would you burn up before the water filled your lu.....ngs?


Chorus:(power chords)
G   D           A          G        D  A
And at your funeral I will sing the requiem.
G   D            A                       G       D         A
I'd offer you my hand, it would hurt too much to watch you die.

[ Tab from: http://www.guitartabs.cc/tabs/s/saves_the_day/at_your_funeral_tab_ver_2.html ]
Verse 2:(power chords)
D           A                     E                 G
And you can bet when we mourn the death of you that night
D                     A             E             G
they'll lay me on the dinner table, I will be the pig
         A           Em                   D               A
with the apple in my mouth, the food that celebrates your end.

Chorus:(power chords)
G   D           A          G        D  A
And at your funeral I will sing the requiem.
G   D            A                       G       D         A
I'd offer you my hand, it would hurt too much to watch you die.

Guitar Solo:(Repeated 8 times)

e|----------------------------------------------------------
b|--10-12-10------------------------------------------------
g|-----------11-9----9-11-----------------------------------
d|----------------12-------12-------------------------------
a|----------------------------------------------------------
e|----------------------------------------------------------

Chorus:(power chords)
G   D           A          G        D  A
And at your funeral I will sing the requiem.
G   D            A                       G       D         A
I'd offer you my hand, it would hurt too much to watch you die.

Guitar solo outro:

e|----------------------------------------------------------
b|----------------------------------------------------------
g|--11-11-9-—12-11-9----------------------------------------
d|----------------------------------------------------------
a|----------------------------------------------------------
e|----------------------------------------------------------

Chord Formations:

First Guitar:
    D   G   A   Em 
e|-(5)--3--(5)—(7)---------------------------------------------
b|--7---3--(5)--8----------------------------------------------
g|--7---0---6---9----------------------------------------------
d|--7---0---7---9----------------------------------------------
a|-(5)--2---7--(7)---------------------------------------------
e|-(5)--3--(5)—(7)---------------------------------------------

Second Guitar:
    D   G   A   Em 
e|--2---3---0---0----------------------------------------------
b|--3---3---2---0----------------------------------------------
g|--2---0---2---0----------------------------------------------
d|--0---0---2---2----------------------------------------------
a|------2---0---2----------------------------------------------
e|------3-------0----------------------------------------------
Comments