Saves The Day - All Star Me Chords & Tabs

 

All Star Me Chords & Tabs

Saves The Day Chords & Tabs

Version: 2 Type: Tab 0 ratings
1 star 2 stars 3 stars 4 stars 5 stars
comments

All Star Me Tab

All Star Me tab by Saves the day,www.ultimate-guitar.com

------------------------------------------------------------------------------
                        All Star Me-Saves the day
------------------------------------------------------------------------------

tabbed by:emokid15
email:emochild15@yahoo.com

Standard tuning   im pretty sure
E|---------------------------------------------------------------|
B|---------------------------------------------------------------|
G|---------------------------------------------------------------|
D|--------5-5-5-5-5-5-5-5/7-7-7-7-7-7-7-7/10-10-10-10-10-10-10-10|
A|--------5-5-5-5-5-5-5-5/7-7-7-7-7-7-7-7/10-10-10-10-10-10-10-10|
E|--------3-3-3-3-3-3-3-3/5-5-5-5-5-5-5-5/-8--8--8--8--8--8--8--8|


E|---------------------------------------------------------------|
B|---------------------------------------------------------------|
G|---------------------------------------------------------------|
D|--------5-5-5-5-5-5-5-5/7-7-7-7-7-7-7-7/10-------10-------10-10|
A|--------5-5-5-5-5-5-5-5/7-7-7-7-7-7-7-7/10-10-10-10-10-10-10-10|
E|--------3-3-3-3-3-3-3-3/5-5-5-5-5-5-5-5/-8--8--8--8--8--8--8--8|

E|---------------------------------------------------------------|
B|---------------------------------------------------------------|
G|---------------------------------------------------------------|
D|--------5-5-5-5-5-5-5-5/7-7-7-7-7-7-7-7/10-10-10-10-10-10-10-10|
A|--------5-5-5-5-5-5-5-5/7-7-7-7-7-7-7-7/10-10-10-10-10-10-10-10|
E|--------3-3-3-3-3-3-3-3/5-5-5-5-5-5-5-5/-8--8--8--8--8--8--8--8|

[ Tab from: http://www.guitartabs.cc/tabs/s/saves_the_day/all_star_me_tab_ver_2.html ]
E|---------------------------------------------------------------|
B|---------------------------------------------------------------|
G|---------------------------------------------------------------|
D|--------5-5-5-5-5-5-5-5/7-7-7-7-7-7-7-7/10-10-10-10-10-10-10-10|
A|--------5-5-5-5-5-5-5-5/7-7-7-7-7-7-7-7/10-10-10-10-10-10-10-10|
E|--------3-3-3-3-3-3-3-3/5-5-5-5-5-5-5-5/-8--8--8--8--8--8--8--8|


E|---------------------------------------------------------------|
B|---------------------------------------------------------------|
G|---------------------------------------------------------------|
D|--------5-5-5-5-5-5-5-5/7-7-7-7-7-7-7-7/-----------------------|
A|--------5-5-5-5-5-5-5-5/7-7-7-7-7-7-7-7/-----------------------|
E|--------3-3-3-3-3-3-3-3/5-5-5-5-5-5-5-5/-----------------------|
                                         i dont know the rest after this but when i find 
ill send it

This isn't the way we planned
I wasn't supposed to forget your taste
Like nights spent figuring all the ways that we came to this place
There we were alone on top of your old rooftop in Highland Park
But ask me now..
Say, "Chris look out across the sky and tell me which way the wind blows."
A core of coal
A core of coal and starches in within me
But even now that you're not here
I climb these mountains of houses every night
I say your name and I wish I could have done things right.


thanks for being a saves the day fan!and bye...richie(secodn tab only 12 years old dont 
pissed off if i mess up)


/=to slide


-----------------------------------------------------------------------------|
-----------------------------------------------------------------------------|
Comments