Savatage - Stay Chords & Tabs

 

Stay Chords & Tabs

Savatage Chords & Tabs

Version: 1 Type: Tab 0 ratings
1 star 2 stars 3 stars 4 stars 5 stars
comments

Stay Tab

   
Savatage - Stay
---------------
Date   : 18th November 2004
Song   : Stay
Artist : Savatage
Album  : Hall Of The MOuntain King (I Think) & in Acoustic Bootleg
I am   : Mohamed Hassan ...20 years old ...Egyptian


This is a simple Acoustic tone from one of the best and most underrated bands in the world
Tune Down Half step

Intro
-----

eb----------------------------------|
Bb----------------------------------|
Gb-------0-------0------0-------0---|
Db-----4-------5------7-------4-----|
Ab---2-------3------5-------2-------|
Eb-0-------0------0-------0---------|  x2

Verse
-----
Hey Child out on your own you never
Look back   never call home you never
turned round,tell me the games that you
----------------------------------|
----------------------------------|
-------0-------0------0-------0---|
-----4-------5------7-------4-----|
---2-------3------5-------2-------|
-0-------0------0-------0---------| x3

Play
-------------|
-------------|
-------4-----|
-2-----4-----|
-2-----2-x8--|
-0-x8--------|

Night time wonder the streets you never
You never give ground Never retreat You're
always Oz-bound Have all the dreams been
betrayed
----------------------------------|
----------------------------------|
-------0-------0------0-------0---|
-----4-------5------7-------4-----|
---2-------3------5-------2-------|
-0-------0------0-------0---------| x4
[ Tab from: http://www.guitartabs.cc/tabs/s/savatage/stay_tab.html ]
Chorus  (Chords and Picking)
------
Em
Stay
D                         Em
Here where dreams tend to stray
D
Here you're safe
-----0------2-2-2----------0-----2-2-2----------|
-------0----------3----------0---------3--------|
-0-0-----0--------2-2--0-0-----0-2-2-2-2-2------|
-2----------------0----2---------0-0-0-0--------|
-2---------------------2------------------------|
-0---------------------0------------------------|
when the night fades away
When the night fades away
--------------------------------------------|
--------------------------------------------|
-2-x-4-x-5-x-xx-2-x-4-x-5-x-5-4-2-----------|
-2-x-4-x-5-x-xx-2-x-4-x-5-x-5-4-2-----------|
-0-x-2-x-3-x-xx-0-x-2-x-3-x-3-2-0-----------|
--------------------------------------------|x4

Outro :

----------------------------------|
----------------------------------|
-------0-------0------0-------0---|
-----4-------5------7-------4-----|
---2-------3------5-------2-------|
-0-------0------0-------0---------|

----------------------------------|
----------------------------------|
-------0-------0------0-------0---|
-----4-------5------7-------4-----|
---2-------3------5-------2-------|
-0-------0------0-------0---------|

----------------------------------|
----------------------------------|
-------0-------0------0-------0---|
-----4-------5------7-------4-----|
---2-------3------5-------2-------|
-0-------0------0-------0---------|

---------------------------------0---|
------------------------------0--0---|
-------0-------0------0----------0---|
-----4-------5------7-------4----2---|
---2-------3------5-------2------2---|
-0-------0------0-------0--------0---|

That's all,Keep It Rockin' ,any Comments : Metia_kickass@hotmail.com
Comments