Savatage - Sleep Chords & Tabs

 

Sleep Chords & Tabs

Savatage Chords & Tabs

Version: 3 Type: Tab 0 ratings
1 star 2 stars 3 stars 4 stars 5 stars
comments

Sleep Tab

   
By: Matt
Every tab I've ever seen for this song has been inaccurate.
This may not be completely right, but it sounds right to me.
Bear with me, because this is my first tab. Hope you enjoy!

Intro/Verse Structure:
Play once for Intro and twice for verses
  G            Bm              Em     Em7
e|-----3--3------------2-2-2------0------0-----------------------------------|
B|-----3--3------------3-3-3------0----3---3-------3-------------------------|
G|-----0--0---------4--4-4-4------0----------0---0---0-----------------------|
D|-----0--0---------4--4-4-4---2--2------------2-----------------------------|
A|-------------0h2-------------2--2------------------------------------------|
E|--3--------------------------0--0------------------------------------------|

  C                                D
e|-----0--0h3-3--3--3--3--3--3p0------2--3--2--0--2--2h3---------------------|
B|-----1--1---1--1--1--1--1--1--------3--3--3--3--3--3----------------------o|
G|-----0--0---0--0--0--0--0--0-----2--2--2--2--2--2--2-----------------------|
D|--2--2--2---2--2--2--2--2--2-----0--0--0--0--0--0--0-----------------------|
A|--3--3--3---3--3--3--3--3--3----------------------------------------------o|
E|---------------------------------------------------------------------------|

Chorus:
  Bm            Em         Bm         Em          Cadd9       G/B        Asus2
e|------2--2-------0--0-------2--2-------0--0--------------------------------|
B|------3--3-------0--0-------3--3-------0--0--------------3-----------3-----|
G|------4--4-------0--0-------4--4-------0--0-----------0-----------0--------|
D|---4-----4----2-----2----4-----4----2-----2--------2-----------0-----------|
A|---2-----2----2-----2----2-----2----2-----2-----3-----------2-----------0--|
E|--------------0-----0---------------0-----0--------------------------------|

            G           Asus2       1.    D       2. D
e|---------------------------------|--------2-2---|--2h3p2p0---0--2----------|
B|-------3-----------------------3-|--------3-3--o|----------3----3----------|
G|----2--------------0--------2----|2-------2-----|---------------2----------|
D|-2--------------0--------2-------|---2----0-----|---------------0----------|
A|-------------2--------0----------|-------------o|--------------------------|
E|----------3----------------------|--------------|--------------------------|

Play once after first chorus and twice after second chorus:
   Em                               D     Em                            D
e|----------------0-----------------2-2------------------0--------------2-2-||
B|-------------0-----0--------------3-3---------------0-----0-----------3-3-||
G|----------0-----------0-----------2-2------------0-----------0--------2-2-||
D|-------2-----------------------2--0-0---------2--------------------2--0-0-||
A|----2-----------------------2--------------2---------------------2--------||
E|-0-----------------------0--------------0----------------------0----------||
[ Tab from: http://www.guitartabs.cc/tabs/s/savatage/sleep_tab_ver_3.html ]
Bridge:
Play twice
   Em          G/F#        G           Asus4
e|---------------------------------------------------------------------------|
B|----------------------------------------------0---------------------------o|
G|----------0-----------0-----------0--------2-------------------------------|
D|-------2-----------0-----------0--------2----------------------------------|
A|----2-----------0-----------2--------0------------------------------------o|
E|-0-----------2-----------3-------------------------------------------------|

Play twice                                                strum fast and plenty
   Em          Em/F#       Em/G        Em/A                   A
e|-------0-----------0-----------0-----------0-----------|-------------------|
B|----------0-----------0-----------0-----------0-------o|---p.m.------------|
G|-------------------------------------------------------|----2--------------|
D|----------------------------------------2--------------|----2--------------|
A|----2-----------0-----------2--------0----------------o|----0--------------|
E|-0-----------2-----------3-----------------------------|-------------------|

Play twice
    E  B  G  E  B  G  Em       E  B  G  E  B  G  Em       E  B  G  E  B  G
e|--------------------0--------------------------0---------------------------|
B|-----------------------0--------------------------0------------------------|
G|--------------------------0--------------------------0---------------------|
D|--2--4--5--2--4--5-----------2--4--5--2--4--5-----------2--4--5--2--4--5---|
A|--2--4--5--2--4--5-----------2--4--5--2--4--5-----------2--4--5--2--4--5---|
E|--0--2--3--0--2--3-----------0--2--3--0--2--3-----------0--2--3--0--2--3---|

                         Outro:
    A        G             G                    Bm           Em
e|--0--0--0--3--3--3-----|-3-------------3--3-----------2-2-----0-----------||
B|--2--2--2--3--3--3----o|---3-----------3--3-----------3-3-----0-----------||
G|--2--2--2--0--0--0-----|-----0---------0--0--------4--4-4-----0-----------||
D|--2--2--2--0--0--0-----|-------0-------0--0--------4--4-4--2--2-----------||
A|--0--0--0--2--2--2----o|----------------------0h2----------2--2-----------||
E|-----------3--3--3-----|------------3----------------------0--0-----------||


Sleep
Written by Jon Oliva, Criss Oliva, Paul O'Neill  

Intro
Verse One:
Hey there you
Way out there in the distance
Can you hear me
Are you there

I know it's late
So please forgive my persistence
But I'm hanging
Do you care

Chorus:
So lay back
Call off the attack
Cause if you look deep
Dreams are nothing that I lack
And all I seek
A final chance to speak
And I would let the whole thing keep
If I could just sleep

Verse 2:
Hey there you
Way out there could you show me
Just a signal
Or a sign
That after all
All these years that you've known me
And I'm not just killing time

(Chorus)

Bridge:
As I lay there late at night
Building castles in the air
Out of alibis and all those little lies
And then I look inside
And pray that I don't care

I don't care

I don't care

Outro:
Hey there you way out there in the distance...


Well, there it is, a great song, and my first tabe ever! hope you like it!
-Matt
Comments