Savatage - Hall Of The Mountain King Chords & Tabs

 

Hall Of The Mountain King Chords & Tabs

Savatage Chords & Tabs

Version: 2 Type: Tab 0 ratings
1 star 2 stars 3 stars 4 stars 5 stars
comments

Hall Of The Mountain King Tab

This is only the intro, intro solo, and the verse to the song (I always give up
on writing entire songs). If requested enough, I just MIGHT overcome laziness and
write the rest.

I wrote this tab in response to all of the other incorrect tabs. Seriously,
did you guys just copy off of each other when
writings these tabs, because they are all very similar, and very wrong. They
MIGHT be correct if you said that it was
tuned up a half step. I however, wrote this in standard tuning. Also, I'm not
sure if a seven-string was used or not, because
the palm-muting sounds an octave lower, but I still wrote this for a six-string.
As for the solo, I'm sure most of it is 
right, or very close (except the tapping part). Here it is (and the dots are
repeat signs). I hope this doesn't come out messed up.


  Intro
e|-----|-----------------------------|-----------------------------|
B|-----|-----------------------------|-----------------------------|
G|-----|.----------------------------|----------------------------.|
D|-----|.----------------------------|----------------------------.|
A|-----|-----------------------------|-9-------8-------6-----------|
E|-6-7-|--8--8-8--8--8-8--6--8~--8-8-|----8-8-----8-8-----6~--6-7--|
             . .     . .  .      . .      . .     . .         . .





  Solo
e|-----------------------------|--------15-18-16-15----15-------------------------|
B|-----------------------------|--16-18-------------18----18-16-15-16h18p16p15-16-|
G|-15^17~----------------------|--------------------------------------------------|
D|-----------------------------|--------------------------------------------------|
A|-----------------------------|--------------------------------------------------|
E|-----------------------------|--------------------------------------------------|
[ Tab from: http://www.guitartabs.cc/tabs/s/savatage/hall_of_the_mountain_king_tab_ver_2.html ]
                                                     [triplet]                                     
e|--------------------------------------------|-------------------------------------------|
B|--------------------------------------------|-------------------------------------------|
G|-17-13-15----12h13p12----12-----------------|-----------------12h13p12(trill)-----10^12-|
D|----------17----------15----17-15-13-12-13~-|------[13-15-17]---------------------------|
A|--------------------------------------------|-------------------------------------------|
E|--------------------------------------------|-------------------------------------------|

  slowly releasing bend
e|---------------------------------------------------|--------------------------------|
B|---------------------------------------------------|--------------------------------|
G|-(10^12)--^12-^12-^12-^12--^12--^12--^11--^11--^11-|-^11--^11--^11--12v10--8h10p8~--|
D|---------------------------------------------------|--------------------------------|
A|---------------------------------------------------|--------------------------------|
E|---------------------------------------------------|--------------------------------|

  Tapping (this is not exactly right, but it's close [tap the fret before the "T"])
e|-15T8h10-15T8h10-15T8h10-15T8h10-11T8h10-13T8h10-13T8h10-11T8h10-|-13T8h10---------------------|
B|-----------------------------------------------------------------|-----------------------------|
G|-----------------------------------------------------------------|-----------------------------|
D|-----------------------------------------------------------------|-----------------------------|
A|-----------------------------------------------------------------|----------\\-----------------|
E|-----------------------------------------------------------------|----------\\-----------------|




  Verse                        [First ending            ][second ending            ]
e|----------------------------|-------------------------|--------------------------|---------------------------|
B|----------------------------|-------------------------|--------------------------|---------------------------|
G|.-------6--------5------6/8-|-------6--------5----3--.|-------6-----6/8--8-8-8\6\|\5-----6--------5------6/8-|
D|.-------6--------5------6/8-|-------6--------5----3--.|-------6-----x/x--x-x-x\x\|\x-----6--------5------6/8-|
A|--3--3--4--3--3--3--3-3-4/6-|-3--3--4--3--3--3--3-1---|-3--3--4--3--4/6--6-6-6\4\|\3--3--4--3--3--3--3-3-4/6-|
E|----------------------------|-------------------------|--------------------------|---------------------------|
    .  .     .  .     . .       .  .     .  .     .       .  .     .                    .     .  .     . .

e|------------------------|
B|------------------------|
G|-------6--------5----3--|
D|-------6--------5----3--|
A|-3--3--4--3--3--3--3-1--|
Comments