Savage Garden - Two Beds And A Coffee Machine Chords & Tabs

 

Two Beds And A Coffee Machine Chords & Tabs

Savage Garden Chords & Tabs

Version: 1 Type: Tab 0 ratings
1 star 2 stars 3 stars 4 stars 5 stars
comments

Two Beds And A Coffee Machine Tab

От: for www.ultimate-guitar.com 
Кому: 
Тема: New Tabs
Дата: 27 июля 2000 г. 1:49

savage garden / two beds and a coffee machine.
 Tabbed by tien sou,tien_sou99@yahoo.com.
  
this is just the solo part in the song.


|----3----3----5----7----5----3----3----3----7-----|
|--------------------------------------------------|
|--------------------------------------------------|
|--------------------------------------------------|
|--------------------------------------------------|
|--------------------------------------------------|



|----5----3----|
|--------------|
|--------------|
|--------------|
|--------------|
|--------------|


[ Tab from: http://www.guitartabs.cc/tabs/s/savage_garden/two_beds_and_a_coffee_machine_tab.html ]
|----3----3----5----7----3----3----7----5----0----3--|
|----------------------------------------------------|
|----------------------------------------------------|
|----------------------------------------------------|
|----------------------------------------------------|
|----------------------------------------------------|



|----3----5----7----5----5----3----3----5----3-------|
|----------------------------------------------------|
|----------------------------------------------------|
|----------------------------------------------------|
|----------------------------------------------------|
|----------------------------------------------------|



that's all very easy see! 
:: Ultimate Guitar Archive :: 
http://www.ultimate-guitar.com 

Comments