Savage Garden - Truly Madly Deeply Chords & Tabs

 

Truly Madly Deeply Chords & Tabs

Savage Garden Chords & Tabs

Version: 1 Type: Tab 0 ratings
1 star 2 stars 3 stars 4 stars 5 stars
comments

Truly Madly Deeply Tab

   
#----------------------------------PLEASE NOTE---------------------------------#
#This file is the author's own work and represents their interpretation of the #
#song. You may only use this file for private study, scholarship, or research. #
#------------------------------------------------------------------------------#

Tablature for Truly Madly Deeply, by Savage Garden
Tabbed by Teknogeek

This is a non-lyrical, instumental version of Truly Madly Deeply. But you can sing the words along with it if you like.

Verse:
  C        G        F        G        C        G        F        G
e 0-------|--------|--------|--------|--------|--------|--------|--------
B 1-------|3-------|1-------|3-------|11111111|111-1-3-|11111111|111-1131
G 0-------|0-------|2-------|0-------|0-0---0-|---2-20-|2-2---2-|---2----
D --------|0-------|3-------|0-------|2-2---2-|------0-|3-3---3-|--------
A --------|--------|--------|--------|--------|--------|--------|--------
E --------|--------|--------|--------|--------|--------|--------|--------

                            End Verse|
  C        G        F        G        Am       G        F        G
e --------|--------|--------|--------|3-------|3-------|3-------|-----0--
B 11111111|111-1-3-|11111111|111-1-11|-1-0--11|-1-10-11|-1-0--11|------31
G 0-0---0-|---2-20-|2-2---2-|---2-2- |-2------|----0---|-2------|0-----0-
D 2-2---2-|------0-|3-3---3-|--------|-2------|----0---|-3------|0-----0-
A --------|--------|--------|--------|--------|--------|--------|2-------
E --------|--------|--------|--------|--------|--------|--------|--------

Chorus:
  C        G        F      G          C        G        F      G 
e --0-----|-----0--|--0-----|-----0--|--0-----|-----0--|--0-----|--------
B 1---3313|------31|1---3313|------31|1---3--1|3-----31|1---3-13|--------
G 0-------|-0------|2------0|------0-|0-------|--0-----|2------0|--------
D 2-------|-0------|3------0|------0-|2-------|--0-----|3------0|--------
A --------|-3------|--------|--------|--------|--2-----|--------|--------
E --------|--------|--------|33------|--------|--------|--------|33--3--3

(Repeat Verse)

  Am       G        F        G
e 3-------|3-------|3--10---|-----0--
B -1--0-11|-1--0-11|1-----1-|3-----31
G -2------|----0---|2-------|0-------
D -2------|----0---|--------|0-------
A --------|--------|--------|--------
E --------|--------|--------|--------

(Repeat Chorus)

Bridge:
  F        G        F        G        F        G
e --------|0-------|00000---|00000---|-------0|0-------
B 1-----11|--3-1-3-|1----31-|3----313|1----13-|--3-1-3-
G 2----2--|--0---0-|2-------|0-------|2-------|--0---0-
D 3-------|--0---0-|3-------|0-------|3-------|--0---0-
A --------|--------|--------|--------|--------|--------

Guitar Solo:
  C        G        F        G
e ---3----|--------|---3----|--------
B 1--1----|---3----|---1----|---3----
G 0-------|--00----|--2-----|--00----
D 2-------|-0------|-3------|-0------
A --------|--------|--------|--------
E --------|3-------|1-------|3----3-3



[ Tab from: http://www.guitartabs.cc/tabs/s/savage_garden/truly_madly_deeply_tab.html ]
Verse (Reprise):
  C        (No Chord)                 C        G        F        G
e --------|--------|--------|--------|--------|--------|--------|-----0--
B --------|--------|--------|--------|11111111|111-1113|1-------|------31
G --------|--------|--------|--------|0-0---0-|---2----|2---2-20|------0-
D --------|--------|--------|--------|2-2---2-|--------|3-------|------0-
A 3-------|--------|--------|--------|--------|--------|--------|--------
E --------|--------|--------|--------|--------|--------|--------|--------

(Repeat Chorus 3x)
(Repeat Guitar solo 2x)
(Use Riff 1 or Riff 2 to finish)

Riff 1:
  C
e 0-------
B 1-------
G 0-------
D 2-------
A 3-----3-
E --------

Riff 2:
  C
e 8-------
B 8-------
G 9-------
D 10------
A --------
E --------


Use riff 1 or 2 to finish, whichever one you like best.

Chord shapes are as follows:

     EADGBe
C    x32010
G    320003 or 320033
F    xx3211
Am   x02210

Or for a different style:

      E  A  D  G  B  E
C     x  x  10 9  8  8
G     x  x  5  4  3  3
F     x  x  3  2  1  1
Am    x  x  7  5  5  5


*****************************************************************************************************************


TRULY MADLY DEEPLY ~ Savage Garden
(revised by Shreyans Tamang)


C           G            F             G                                   C
e|-----7-8-10-|12-12-12--7|8-7--------|-----8-------|---------------5-5--7--8--7--8-10|-10/12|
B|8-10--------|-----------|----10-8-8-|-6-8---------|8-6-5----5-6-8---8---------------|------|
G|------------|-----------|-----------|--------5----|------7-7------------------------|------|
D|------------|-----------|-----------|-----------7-|---------------------------------|------|
A|------------|-----------|-----------|-------------|---------------------------------|------|
E|------------|-----------|-----------|-------------|---------------------------------|------|


*****************************************************************************************************************


Song:Truly,Madly,Deeply (solo)
By:Savage Garden

Tab By:Dennis
e-mail:chohean@pl.jaring.my

C key

intro
C,G,F,G


The solo comes in at this sign #.During the solo part,The rythem guitarist plays the chords like this 
C,G,F,G
              C           G            F             G                                   C
e|-----7-8-10-|12-12-12--7|8-7---------|-----8-------|---------------5---5--7--8--7--8-10|-10/12||
b|8-10--------|-----------|----10-8-8--|-6-8---------|8-6-5----5-6-8---8-----------------|------||
g|------------|-----------|------------|--------5----|------7-7--------------------------|------||
d|------------|-----------|------------|-----------7-|-----------------------------------|------||
a|------------|-----------|------------|-------------|-----------------------------------|------||
E|------------|-----------|------------|-------------|-----------------------------------|------||

Thats all guys.The last solo,you figure out yourself!!!


Mail me if I have any corrections.
http://members.xoom.com/DennisL/


*****************************************************************************************************************



  
Comments