Savage Garden - To The Moon And Back Chords & Tabs

 

To The Moon And Back Chords & Tabs

Savage Garden Chords & Tabs

Version: 2 Type: Bass Tab 0 ratings
1 star 2 stars 3 stars 4 stars 5 stars
comments

To The Moon And Back Bass Tab

SAVAGE GARDEN - "To the Moon and Back" - Bass Tab

common time(4/4)
standard tuning(EADG)

INTRO:

|---------------|-----------|---------------|
|---------------|-1---------|---------------|
|-3-3-r---1-3-1-|---3-r-----|---------------|
|---------------|-----------|-3-3-r---1-3-1-|
  1 & 2 3 & 4 &   1 & 2 3 4   1 & 2 3 & 4 &

|---------------|---------|
|---------------|---------|
|-------------1-|-3-------|
|-4-4-r---1-4---|---------|
  1 & 2 3 & 4 &   1 2 3 4

VERSE 1:

|---------|---------|---------|---------|---------|---------|
|---------|---------|---------|---------|---------|---------|
|-3-------|-1-------|---------|---------|-3-------|-1-------|
|---------|---------|-3-------|-4-------|---------|---------|
  1 2 3 4   1 2 3 4   1 2 3 4   1 2 3 4   1 2 3 4   1 2 3 4

|--------|---------|---------|-------------|
|--------|---------|---------|-------------|
|--------|---------|---------|-----------1-|
|-3------|-4-------|-4-------|-------1-4---|
  1 2 3 4  1 2 3 4   1 2 3 4   1 2 3 & 4 &

CHORUS:
[ Tab from: http://www.guitartabs.cc/tabs/s/savage_garden/to_the_moon_and_back_btab_ver_2.html ]
|------------------|-----------------|-----------------|
|*-----------------|-----------------|-----------------|
|*-3-3-r-3-r-1-3-1-|-----------------|-----------------|
|------------------|-4-4-r-4-r-1-3-4-|-6-6-r-6-r-4-6-4-|
   1 & 2 & 3 & 4 &   1 & 2 & 3 & 4 &   1 & 2 & 3 & 4 &

|------------------|
|-----------------*|
|---------------1-*|
|-3-3-r-3-r-1-4----|
  1 & 2 & 3 & 4 &

VERSE 2/GUITAR SOLO:

|----------------|-----------|---------------|
|*---------------|-1---------|---------------|
|*-3-3-r---1-3-1-|---3-r-----|---------------|
|----------------|-----------|-3-3-r---1-3-1-|
   1 & 2 3 & 4 &   1 & 2 3 4   1 & 2 3 & 4 &

|----------------|
|---------------*|
|-------------1-*|
|-4-4-r---1-4----|
  1 & 2 3 & 4 &

'HOLD ON' BIT:  

|----------|---------|---------|----------|
|*---------|---------|---------|---------*|
|*-3-------|-1-------|---------|---------*| (x2)
|----------|---------|-3-------|-4--------|
   1 2 3 4   1 2 3 4   1 2 3 4   1 2 3 4

By: Johari Taylor
E-mail: viking@powerup.com.au

   


Comments