Savage Garden - I Knew I Loved You Chords & Tabs

 

I Knew I Loved You Chords & Tabs

Savage Garden Chords & Tabs

Version: 1 Type: Bass Tab 0 ratings
1 star 2 stars 3 stars 4 stars 5 stars
comments

I Knew I Loved You Bass Tab

SAVAGE GARDEN - "I Knew I Loved You" - Bass Tab

Common Time(4/4)
Standard Tuning(EADG)

INTRO:
|---------|---------|---------|-6---6-7---|-----------|---------|
|---------|---------|-7---9---|-----------|-4---4-2---|-0-------|
|-r-e-s-t-|-r-e-s-t-|---------|-----------|-----------|---------|
|---------|---------|---------|-----------|-----------|---------|
  1 2 3 4   1 2 3 4   1 2 3 4   1 2 & 3 4   1 2 & 3 4   1 2 3 4


1ST VERSE:
                      (x3)
|------------|-6---6-7----|-----------|-7---7-9---|
|*-7---7-9---|-----------*|-7---7-9---|-----------|
|*-----------|-----------*|-----------|-----------|
|------------|------------|-----------|-----------|
   1 2 & 3 4   1 2 & 3 4    1 2 & 3 4   1 2 & 3 4


1ST PRE-CHORUS:
|-------6---|-7---7-9---|-------6---|-7-------|
|-9---9-----|-----------|-9---9-----|---------|
|-----------|-----------|-----------|---------|
|-----------|-----------|-----------|---------|
  1 2 & 3 4   1 2 & 3 4   1 2 & 3 4   1 2 3 4


CHORUS:
                      (x3)
|------------|------------|-----------|---------|
|*-----------|-----------*|-----------|---------|
|*-----------|-5---5-7---*|-----------|-5-------|
|--5---5-7---|---------0--|-5---5-7---|---------|
   1 2 & 3 4   1 2 & 3 4    1 2 & 3 4   1 2 3 4

[ Tab from: http://www.guitartabs.cc/tabs/s/savage_garden/i_knew_i_loved_you_btab.html ]
2ND VERSE:
                      (x3)
|------------|------------|-----------|-----------|
|*-----------|-----------*|-----------|-----------|
|*-----------|-4---4-5---*|-----------|-5---5-7---|
|--5---5-7---|------------|-5---5-7---|-----------|
   1 2 & 3 4   1 2 & 3 4    1 2 & 3 4   1 2 & 3 4


2ND PRE-CHORUS:
|-----------|-----------|-----------|---------|
|-----------|-------2---|-----------|---------|
|-2---2-4---|-5---5-----|-2---2-4---|-5-------|
|-----------|-----------|-----------|---------|
  1 2 & 3 4   1 2 & 3 4   1 2 & 3 4   1 2 3 4


BRIDGE:
|-----------|-----------|-----------|-----------|-----------|
|-----------|-----------|-----------|-----------|-----------|
|-4---4-----|-5---5-----|-------5---|-----------|-4---4-----|
|-------2---|-------5-4-|-2---2-----|-5---5-0---|-------2---|
  1 2 & 3 4   1 2 & 3 4   1 2 & 3 4   1 2 & 3 4   1 2 & 3 4

|-----------|-----------|-----------|---------|
|-----------|-----------|-----------|---------|
|-5---5-----|-----------|-5---5-5---|-5-------|
|-------5-4-|-2---2-0---|-----------|---------|
  1 2 & 3 4   1 2 & 3 4   1 2 & 3 4   1 2 3 4

END:
|------------|------------|
|*-----------|-----------*| (repeat till fade-out)
|*-----------|-6---6-8---*|
|--6---6-8---|------------|
   1 2 & 3 4   1 2 & 3 4   

By: Johari Taylor
E-mail: viking@powerup.com.au
More Bass Tabs: http://www.powerup.com.au/~viking/basstab.htm

Comments