Savage Garden - Chained To You Chords & Tabs

 

Chained To You Chords & Tabs

Savage Garden Chords & Tabs

Version: 2 Type: Bass Tab 0 ratings
1 star 2 stars 3 stars 4 stars 5 stars
comments

Chained To You Bass Tab

SAVAGE GARDEN - "Chained To You" - Bass Tab

INTRO:
              (x7)
|-----|-----------|-------------|
|-----|*---------*|-------------|
|-----|*---------*|-------------|
|-r-r-|--r-e-s-t--|-r-r-r-3-5-5-|
  & 4    1 2 3 4    1 2 3 & 4 &     

|------------------|------------------|
|*-----------------|-----------------*|
|*---------5-5-5-5-|-7-7-7-7---------*| (x4)
|--7-7-7-7---------|---------5-5-5-5--|
   1 & 2 & 3 & 4 &   1 & 2 & 3 & 4 &

VERSES:
|-----------------|-----------------|-----------------|
|-----------------|-----------------|-----------------|
|-----------------|-----------------|-2-2-2-2-2-2-2-2-|
|-3-3-3-3-3-3-3-3-|-3-3-3-3-3-3-3-3-|-----------------|
  1 & 2 & 3 & 4 &   1 & 2 & 3 & 4 &   1 & 2 & 3 & 4 &

|-----------------|-----------------|-----------------|
|-----------------|-----------------|-----------------|
|-2-2-2-2-2-2-2-2-|-----------------|-----------------|
|-----------------|-3-3-3-3-3-3-3-3-|-3-3-3-3-3-3-3-3-|
  1 & 2 & 3 & 4 &   1 & 2 & 3 & 4 &   1 & 2 & 3 & 4 &

|-----------------|-----------------|-----------------|
|-----------------|-----------------|-----------------|
|-2-2-2-2-2-2-2-2-|-0-0-0-0-0-0-0-0-|-----------------|
|-----------------|-----------------|-3-3-3-3-3-3-3-3-|
  1 & 2 & 3 & 4 &   1 & 2 & 3 & 4 &   1 & 2 & 3 & 4 &

|-----------------|-----------------|-----------------|
|-----------------|-----------------|-----------------|
|-5-5-5-5-5-5-5-5-|-0-0-0-0-0-0-0-0-|-2-2-2-2-2-2-2-2-|
|-----------------|-----------------|-----------------|
  1 & 2 & 3 & 4 &   1 & 2 & 3 & 4 &   1 & 2 & 3 & 4 &
[ Tab from: http://www.guitartabs.cc/tabs/s/savage_garden/chained_to_you_btab_ver_2.html ]
|-----------------|-----------------|-----------------|
|-----------------|-----------------|-----------------|
|-----------------|-----------------|-5-5-5-5-5-5-5-5-|
|-3-3-3-3-3-3-3-3-|-3-3-3-3-3-3-3-3-|-----------------|
  1 & 2 & 3 & 4 &   1 & 2 & 3 & 4 &   1 & 2 & 3 & 4 &

|-----------------|-----------------|-----------------|
|-----------------|-----------------|-----------------|
|-0-0-0-0-0-0-0-0-|-2-2-2-2-2-2-2-2-|-----------------|
|-----------------|-----------------|-5-5-5-5-5-3-5-5-|
  1 & 2 & 3 & 4 &   1 & 2 & 3 & 4 &   1 & 2 & 3 & 4 &

CHORUS/END:
|------------------|------------------|
|*-----------------|-----------------*|
|*---------5-5-5-5-|-7-7-7-7---------*|
|--7-7-7-7---------|---------5-5-5-5--|
   1 & 2 & 3 & 4 &   1 & 2 & 3 & 4 &

INSTRUMENTAL:
|-----------------|-----------------|-----------------|
|-----------------|-----------------|-----------------|
|-----------------|-5-5-5-5-5-5-5-5-|-0-0-0-0-0-0-0-0-|
|-3-3-3-3-3-3-3-3-|-----------------|-----------------|
  1 & 2 & 3 & 4 &   1 & 2 & 3 & 4 &   1 & 2 & 3 & 4 &

|-----------------|-----------------|-----------------|
|-----------------|-----------------|-----------------|
|-2-2-2-2-2-2-2-2-|-----------------|-----------------|
|-----------------|-3-3-3-3-3-3-3-3-|-3-3-3-3-3-3-3-3-|
  1 & 2 & 3 & 4 &   1 & 2 & 3 & 4 &   1 & 2 & 3 & 4 &

|-----------------|-----------------|-----------------|
|-----------------|-----------------|-----------------|
|-5-5-5-5-5-5-5-5-|-0-0-0-0-0-0-0-0-|-2-2-2-2-2-2-2-2-|
|-----------------|-----------------|-----------------|
  1 & 2 & 3 & 4 &   1 & 2 & 3 & 4 &   1 & 2 & 3 & 4 &

|-----------------|
|-----------------|
|-0-0-0-0-0-0-0-0-|
|-----------------|
  1 & 2 & 3 & 4 &  

MIDDLE:
|----------|---------|---------|----------|
|*---------|---------|---------|---------*|
|*---------|---------|-2-------|---------*| (x4)
|--3-------|---------|---------|----------|
   1 2 3 4   1 2 3 4   1 2 3 4   1 2 3 4

By: Johari Taylor
E-mail: viking@powerup.com.au
More Bass Tabs: http://www.powerup.com/~viking/basstab.htm
Comments