Savage Garden - Break Me Shake Me Chords & Tabs

 

Break Me Shake Me Chords & Tabs

Savage Garden Chords & Tabs

Version: 2 Type: Bass Tab

Break Me Shake Me Bass Tab

   
----------------------------------------------------------------------------
			     Break Me Shake Me - Savage Garden
----------------------------------------------------------------------------

Tabbed By : Chris
e-mail:

Tuning:Standard

[ Tab from: http://www.guitartabs.cc/tabs/s/savage_garden/break_me_shake_me_btab_ver_2.html ]
             Intro
G|-------------------------------|
D|---2-2-2-22222--0-0-00---------|2x
A|-----------------------2-2222--|
E|-------------------------------|
             Verse and Chorus
G|-------------------------------|
D|---2-2-2-22222--5-5-55---------|
A|-----------------------2-2222--|
E|-------------------------------|
          Bridge
G|----------------------------|
D|---22-00--------------------|
A|---------33-22-33-22--------|
E|---------------------33-00--|

Wicked Simple...but pretty fun to play, Listen to the song for timing and everything...I 
its 100% correct.