Savage Garden - Affirmation Chords & Tabs

 

Affirmation Chords & Tabs

Savage Garden Chords & Tabs

Version: 1 Type: Tab 0 ratings
1 star 2 stars 3 stars 4 stars 5 stars
comments

Affirmation Tab

   
#----------------------------------PLEASE NOTE---------------------------------#
#This file is the author's own work and represents their interpretation of the #
#song. You may only use this file for private study, scholarship, or research. #
#------------------------------------------------------------------------------#

AFFIRMATION
(Savage Garden)
1999


Tabbed by David Tyson 


[NOTE 1: Daniel uses a capo on fret 1, and all chords are relative to
         the capo. For instance, without the capo, 'A' would be played
         as 'Bb' (x13331). Most chords are played as fifth root barres. ]
[NOTE 2: All chords last for two beats, except the 'Dsus4-D'transition
         where both chords last for one beat each, and the 'E' chord in
         the pre-chorus', which lasts for four beats. This should help
         with timing etc. It's not a hard song! ]

Chords used:
 EADGBe
G(320033)
D(xx0232)    in pre-chorus and chorus: (x57775)
Dsus4(xx0233)
C(x32010)
F#m(x 9 11 11 10 9)
E(x79997)
A(x02220)

Intro
=====
G   D   C   Dsus4 D
G   D   C   D

G   D   C     Dsus4 D [NOTE: The last 'D' gets played during the
     e--8--9--6--8---------- '8' on the top e string]
     B--------------9-8-9---
     G----------------------
     D----------------------
     A----------------------
     E----------------------

G   D   C   D
[ Tab from: http://www.guitartabs.cc/tabs/s/savage_garden/affirmation_tab.html ]
Verse 1
=======
Pre-chorus 1
============
Chorus
======
   A               D              E            D  
e--------------------------------------------------------------
B----------------------------------------------------------0---
G----------2---------------2------------2--------------2-------
D------2-------2-------2-------2-----2-----2-------2-----------
A--0---------------0--------------0------------0---------------
E--------------------------------------------------------------

   A                E            D                 E   
e------------------------------------------------------------------
B--------------------------------------------------------------0---
G----------2--------------2--------------2-----------------2-------
D------2-------2-------2-----2-------2-------2---------2-----------
A--0----------------0------------0-----------------0---------------
E------------------------------------------------------------------

   A                D                E              D
e-------------------------------------------------------------------
B---------------------------------------------------------------0---
G----------2-----------------2--------------2---------------2-------
D------2-------2--------2--------2-------2------2-------2-----------
A--0----------------0----------------0--------------0---------------
E-------------------------------------------------------------------

   A                E                      D             E
e------------------------------------------------------------------------
B--------------------------------------------------------------------0---
G----------2--------------------2-----------------2--------------2-------
D------2-------2----------2-----------2--------2-----2-------2-----------
A--0----------------0----------------------0-------------0---------------
E------------------------------------------------------------------------


Verse 2
=======
Pre-chorus 2
============
Chorus
======
(I believe in karma what you give is what get returned...ect)
   G   D   C     Dsus4 D
e----------8--9--6--8--------
B-/9~~~~~~~-----------9-8-9--
G----------------------------
D----------------------------
A----------------------------
E----------------------------


Verse 3
=======
Pre-chorus 3
============
Repeat chorus twice


submitted by david tyson (noel_david84@yahoo.com)
Comments