Savage Garden - Affirmation Chords & Tabs

 

Affirmation Chords & Tabs

Savage Garden Chords & Tabs

Version: 1 Type: Bass Tab 0 ratings
1 star 2 stars 3 stars 4 stars 5 stars
comments

Affirmation Bass Tab

SAVAGE GARDEN - "Affirmation" - Bass Tab

Common Time(4/4)
Standard Tuning(EADG)

INTRO:
       (x10)
|-----------|------------------|-----------------|-----------------|
|*---------*|*-----------------|-----------------|-----------------|
|*-r-e-s-t-*|*-----------------|-6-6-6-6-6-6-6-6-|-4-4-4-4-4-4-4-4-|
|-----------|--4-4-4-4-4-4-4-4-|-----------------|-----------------|
   1 2 3 4     1 & 2 & 3 & 4 &   1 & 2 & 3 & 4 &   1 & 2 & 3 & 4 &

               (x4)
|------------------|
|-----------------*|
|-6-6-6-6-6-6-6-6-*|
|------------------|
  1 & 2 & 3 & 4 &


VERSES
   (softly)
|------------------|-----------------|-----------------|
|*-----------------|-----------------|-----------------|
|*-----------------|-6-6-6-6-6-6-6-6-|-4-4-4-4-4-4-4-4-|
|--4-4-4-4-4-4-4-4-|-----------------|-----------------|
   1 & 2 & 3 & 4 &   1 & 2 & 3 & 4 &   1 & 2 & 3 & 4 &

               (x4)
|------------------|------------------|-----------------|
|-----------------*|*-----------------|-----------------|
|-6-6-6-6-6-6-6-6-*|*-----------------|-6-6-6-6-6-6-6-6-|
|------------------|--3-3-3-3-3-3-3-3-|-----------------|
  1 & 2 & 3 & 4 &     1 & 2 & 3 & 4 &   1 & 2 & 3 & 4 &
[ Tab from: http://www.guitartabs.cc/tabs/s/savage_garden/affirmation_btab.html ]
                                (x2)
|-----------------|------------------|
|-----------------|-----------------*|
|-----------------|-----------------*|
|-1-1-1-1-1-1-1-1-|-1-1-1-1-1-1-1-1--|
  1 & 2 & 3 & 4 &   1 & 2 & 3 & 4 &


CHORUS/END:
|------------------|-----------------|-----------------|
|*-----------------|-1-1-1-1-1-1-1-1-|-3-3-3-3-3-3-3-3-|
|*-1-1-1-1-1-1-1-1-|-----------------|-----------------|
|------------------|-----------------|-----------------|
   1 & 2 & 3 & 4 &   1 & 2 & 3 & 4 &   1 & 2 & 3 & 4 &

|-----------------|-----------------|-----------------|
|-1-1-1-1-1-1-1-1-|-----------------|-3-3-3-3-3-3-3-3-|
|-----------------|-1-1-1-1-1-1-1-1-|-----------------|
|-----------------|-----------------|-----------------|
  1 & 2 & 3 & 4 &   1 & 2 & 3 & 4 &   1 & 2 & 3 & 4 &

|-----------------|------------------|
|-1-1-1-1-1-1-1-1-|-3-3-3-3-3-3-3-3-*|
|-----------------|-----------------*|
|-----------------|------------------|
  1 & 2 & 3 & 4 &   1 & 2 & 3 & 4 &


INSTRUMENTAL:
|------------------|-----------------|-----------------|
|*-----------------|-----------------|-----------------|
|*-----------------|-6-6-6-6-6-6-6-6-|-4-4-4-4-4-4-4-4-|
|--4-4-4-4-4-4-4-4-|-----------------|-----------------|
   1 & 2 & 3 & 4 &   1 & 2 & 3 & 4 &   1 & 2 & 3 & 4 &

               (x2)                (x8)
|------------------|-------------------|
|-----------------*|*-----------------*|
|-6-6-6-6-6-6-6-6-*|*-----------------*|
|------------------|--4-4-4-4-4-4-4-4--|
  1 & 2 & 3 & 4 &     1 & 2 & 3 & 4 &

Comments