Savage - Let It Loose Chords & Tabs

 

Let It Loose Chords & Tabs

Savage Chords & Tabs

Version: 2 Type: Bass Tab 0 ratings
1 star 2 stars 3 stars 4 stars 5 stars
comments

Let It Loose Bass Tab

                             "Let it Loose"

 written by Savage
 as performed on the fan can
 tab by Fabio Bari: Meu@metallica.com

 1)
 G-------------------------------------------------
 D-------------------------------------------------
 A----------------3-5-------------5-3--------------
 E--5-5-5-5-5-5-5-----5-5-5-5-5-5------------------ 
 pm..........................................
 Verse
[ Tab from: http://www.guitartabs.cc/tabs/s/savage/let_it_loose_btab_ver_2.html ]
 2)
 G---------------------------------------------------------------
 D---------------------------------------------------------------
 A--------------------------------------------------------------- 
 E--5-5-5-5-5-5-5--3-3-3-3-3-3-3-3-2-2-2-2-2-2-2-2--3-2-3-2-3-2--
 pm..............................................................
 verse (I don't know the lyrics)

 3)
 G--------------------------------------------------
 D-----------------5---------------7------------5-55
 A--7--7-7-7-7-7-7---7-7-7-7-7-7-7---7-7-7-7-7-7----
 E--------------------------------------------------
 Solo riff
 
 4)
 G-------------------------------------------------
 D---------------5-----------------7---------------
 A-7-7-7-7-7-7-7---7-7-7-7-7-7-7-7----5--55--------
 E-------------------------------------------------
 
 End 
 5)
 G-------------------------------------------------
 D-------------------------------------------------
 A-------------------------------------------------
 E--5-3-2-1-0-0-0-0-0-0-0-------5------------------
Comments