Sausage - Riddles Are Abound Tonight Chords & Tabs

 

Riddles Are Abound Tonight Chords & Tabs

Sausage Chords & Tabs

Version: 2 Type: Bass Tab 0 ratings
1 star 2 stars 3 stars 4 stars 5 stars
comments

Riddles Are Abound Tonight Bass Tab

Riddles are abound Tonight
Sausage (les claypool side project)
tabbed by Phil (RuneChild@aol.com)

all notes in this song are either slapped or popped
(pop all notes on D & G strings, and slap all the notes
on the E string)
[ Tab from: http://www.guitartabs.cc/tabs/s/sausage/riddles_are_abound_tonight_btab_ver_2.html ]
intro
G|-----3p0------3p0----------3p0----------------------|
D|-0h2------0h2----------0h2--------------------------|
A|----------------------------------------------------|
E|----------------------------------------------------|
 repeat this riff
G|--0-0---0---0-0---0------------3p0------------------|
D|--5-5---5---5-5---5--------0h2----------------------|
A|----------------------------------------------------|
E|------x---x-----x---x-2-2---------------------------|
Comments