Satyricon - Dark Castle In The Deep Forest Chords & Tabs

 

Dark Castle In The Deep Forest Chords & Tabs

Satyricon Chords & Tabs

Version: 1 Type: Tab 0 ratings
1 star 2 stars 3 stars 4 stars 5 stars
comments

Dark Castle In The Deep Forest Tab

   
Song:The Dark Castle in the Deep Forest
Artist:Satyricon
Album:Dark Medieval Times
Tabbed by:Asbeel@hotmail.com

Another great song off of "Dark Medieval times" . This is not "The 
Night of Divine Power" from Megiddo,the original song is different, not by much ,but it is. Mail me any 
requests for blackmetal songs you want to see tabbed.

Key:
p=pull-off
h=hammer-on
/=slide
pm=palm mute
tr=trill

Riff 1x6
---------------------------------------------------------------------------------
---------------------------------------------------------------------------------
---------------------------------------------------------------------------------
--44444444-55555555-44444444---888888-77---44444444-55555555-44444444--3-3-3-3---
--22222222-33333333-22222222---666666-55---22222222-33333333-22222222--3-3-3-3---
-----------------------------------------------------------------------1-1-1-1---

Riff 2 (Follows synth)
-----------------------------------
-----------------------------------
---------0---------------0---------
------4-----4---------4-----4------
---2-----------2---3-----------3---
-----------------------------------

Riff 3x6
-------------------
-------------------
-------------------
--4--4-4--5-5--3---
--2--2-2--3-3--1---
-------------------

Riff 4x4
---------------------------------------
---------------------------------------
---------------------------------------
--44444444-55555555-44444444-33333333--
--22222222-33333333-22222222-11111111--
---------------------------------------
[ Tab from: http://www.guitartabs.cc/tabs/s/satyricon/dark_castle_in_the_deep_forest_tab.html ]
Riff 5x
----------------------------------------------------------------------------------------------------------
----------------------------------------------------------------------------------------------------------
----------------------------------------------------------------------------------------------------------
-----9-7-----------9-7----------9-7----------7-5-------------9-7-----------9-7-------14--1414--13--13-13--
--7--------8-7---6-----8-7---7------8-7---5------6-5------7--------8-7---6-----8-7---12--1212--11--11-11--
----------------------------------------------------------------------------------------------------------

Riff 6xA Bunch
-------------------------------------------------
-------------------------------------------------
-------------------------------------------------
-----9-10-9-7----7---7------9-10-9-7----6--10-9--
--7------------7---8-----7------------8----------
-------------------------------------------------

Riff 7 x6
-------------------------
-------------------------
-------------------------
---9--9/7--7/9-1010--9---
---7--7/5--5/7--8-8--7---
-------------------------

Pause

Riff 8 x4
-------------------------------------------------------------
-------------------------------------------------------------
-------------------------------------------------------------
--9-9-9-9-9-9-9-9--9-101010--9-9-9--9-9-9-9-9-9-9-9-7-7/8-8--
--7-7-7-7-7-7-7-7--7--7-7-7--7-7-7--7-7-7-7-7-7-7-7-7-7/8-8--
----------------------------------------------------5-5/6-6--

Riff 9 x4
----------------------------
----------------------------
----------------------------
------9--6---------6-10-9---
---7--7--4--8--7---4--8-7---
---5--------6--5------------

Riff 10x8
---------------------------------
---------------------------------
---------------------------------
-------9-9/7--7-------9-9/10-10--
--222--7-7/5--5--222--7-7/-8--8--
--000------------000-------------

Riff 11x4
-------------------------
-------------------------
----11-12-14-12-11-12-8--
--2--9-10-12-10--9-10-6--
--2----------------------
--0----------------------

Riff 12 Play at various speeds until the songs end
---------------------------------------
---------------------------------------
---------------------------------------
------9-10-9--7-5-4----4-5-4----7-5-9--
---7-----------------0--------0--------
---------------------------------------

End
------------
------------
------------
--/7--5--2--
------------
------------
Comments