Saturday Looks Good To Me - Since You Stole My Heart Chords & Tabs

 

Since You Stole My Heart Chords & Tabs

Saturday Looks Good To Me Chords & Tabs

Version: 1 Type: Tab 0 ratings
1 star 2 stars 3 stars 4 stars 5 stars
comments

Since You Stole My Heart Tab

   
Saturday Looks Good To Me
Every Night
Since You Stole My Heart



Intro:

E--------------------------------0-----
B--------------------------------1-----
G---------------------2p0--------0-----
D--0h2-5--0h2-5---2--------2-0---2-----
A--------------------------------3-----
E--------------------------------------

Verse:


	     Am          C E7  E      F
I don’t know what’s come o-ver me
          G        C
Since you stole my heart

E-----------------0--------------------
B-----------------1--------------------
G-----------------0--------------------
D-----------------2--------------------
A-----0--2--------3--------------------
E--3-----------------------------------



             Am            C   E7  E     F
You've got a power that no one can see

Chorus:
       G       F           G
And it reaches down to the ocean
F        G      F        G        
Seagulls fly in circular motion
F        G        F        G        F
Children spinning in rollercoasters
          G        C
Since you stole me heart


Verse:

E----------------0---------------------
B----------------1---------------------
G----------------0---------------------
D----------------2---------------------
A-----0--2-------3---------------------
E--3-----------------------------------



          Am          C     E7 E   F
And every time you're close to me
          G        C
Since you stole my heart


E-----------------0--------------------
B-----------------1--------------------
G-----------------0--------------------
D-----------------2--------------------
A-----0--2--------3--------------------
E--3-----------------------------------



          Am   C   E7 E   F
I feel an elec-tri-ci-ty
[ Tab from: http://www.guitartabs.cc/tabs/s/saturday_looks_good_to_me/since_you_stole_my_heart_tab.html ]
Second Chorus:
       G    F        G
And it just won’t go away
    F     G     F         G
And no, I can’t give it a name
    F       G        F               G     F
And nothing seems to feel at all the same
          G        C
Since you stole my heart

Bridge:

E-----------------0--------------------
B-----------------1--------------------
G-----------------2--------------------
D-----------------2--------------------
A-----3--2--------0--------------------
E--3-----------------------------------


                     Bb        F
I walked through the graveyard
                G             C
And sang to the cold stars
                     Dm
All the names on my dancecard

Am               F
Left me standing down by the ocean 
Am            F		 G
All alone and out in the open  C

	     Am          C E7  E      F
I don’t know what’s come o-ver me
          G        C
Since you stole my heart

Interlude:

E-------------------0------------------
B-------------------1------------------
G-------------------0------------------
D-------------------2------------------
A-----0--2----------3------------------
E--3-----------------------------------



Am,C,E7,E

F,G     

C

Am,C,E7,E

F,G 7x

C


2nd Bridge? (whatever you call this)

E--------------------0-----------------
B--------------------1-----------------
G--------------------2-----------------
D--------------------2-----------------
A-----3--2-----------0-----------------
E--3-----------------------------------


         
         Bb           F
Somebody told me that
           G          C
everyone’s lonely but 
          Dm   Am
I was the only fool there waiting
F
Down by the ocean
Am            F            G      C
With my heart half the way broken



Outro:
             Am          C E7  E  F
I don't know what's come o-ver me
          G        C
Since you stole my heart

E-------------------1------------------
B-------------------1------------------
G-------------------2------------------
D-------------------3------------------
A-----0--2----------3------------------
E--3----------------1------------------



          G        C
Since you stole my heart



Comments