Satriani Joe - Lights Of Heaven Chords & Tabs

 

Lights Of Heaven Chords & Tabs

Satriani Joe Chords & Tabs

Version: 1 Type: Tab 0 ratings
1 star 2 stars 3 stars 4 stars 5 stars
comments

Lights Of Heaven Tab

#----------------------------------PLEASE NOTE--------------------------------#
#This file is the author's own work and represents their interpretation of the#
#song. You may only use this file for private study, scholarship, or research.#
#-----------------------------------------------------------------------------#
#-- File created with Instab - http://www.pconline.com/~smcarey/instab.html --#
#-----------------------------------------------------------------------------#

Author/Artist: joe satriani
Title: lights of heaven
Album: crystal planet
Transcribed by: chris jackson
Email: fender88@rock.com

this song is 100% correct 
I will post the octave beginning and the first big solo later I
will have it soon im 14 I have alot of time to waste.
I would appreciate it if you please don't post this anywere 
else except guitartabs.cc or without my permission thanks.
i could not find a tab for this any were so I made this its good song


any questions,comments or whatever Email me at
Fender88@rock.com

------------------------------------------------------------------------------
------------------------------------------------------------------------------
-9-9-9-9-9-9-9-9-9-9-9------9-9-9-9-7-----------------------------------------
-9-9-9-9-7-7-7-9-9-9-9------9-9-9-9-7-----------------------------------------
-7-7-7-7-7-7-7-7-7-7-7------7-7-7-7-7-----------------------------------------
------------------------8-8-8-8-7-7-7-----------------------------------------
        repeat X4                                                             

------------------10-12-------------------------|-----------------------------
-8-10-8-10/12v-12-------10----------------------|-----------------------------
----------------------------12-11b12-----7/9----|-7/9-7-4---------------------
------------------------------------------------|-----------------------------
------------------------------------------------|-----------------------------
------------------------------------------------|-----------------------------
        X2                     hold this bend         at the of 2nd go        
[ Tab from: http://www.guitartabs.cc/tabs/s/satriani_joe/lights_of_heaven_tab.html ]
---------------------10----10-12--------------------------------12------10v---
---------10-12-10-12----12-------10----------------10-12-10-12------10--------
-9-11-12----------------------------------9-11-12-----------------------------
------------------------------------------------------------------------------
------------------------------------------------------------------------------
------------------------------------------------------------------------------
                                                                              

-------------------10-12------------------------------------------------------
-8-10-8-10/12v-12---------10--------------------------------------------------
-------------------------------12-11b12----7/9--------------------------------
------------------------------------------------------------------------------
------------------------------------------------------------------------------
------------------------------------------------------------------------------
                                hold this bend                                

------------------------------------------------------------------------------
-12b13-12-10------------------------------------------------------------------
-------------11b12-11-9-12----------------------------------------------------
------------------------------------------------------------------------------
------------------------------------------------------------------------------
------------------------------------------------------------------------------
                  mess around with this there is some extra notes he plays    

------------------------------------------------------------------------------
----0------------0---0--------------------------------------------------------
--11-11---11---7---6---6------------------------------------------------------
-9----9-9----5---4------4-----------------------------------------------------
------------------------------------------------------------------------------
------------------------------------------------------------------------------
 listen to CD for timing and number of times to play                          

Comments