Satriani Joe - Friends Chords & Tabs

 

Friends Chords & Tabs

Satriani Joe Chords & Tabs

Version: 2 Type: Tab 0 ratings
1 star 2 stars 3 stars 4 stars 5 stars
comments

Friends Tab

Had some spare time, and I noticed Friends wasn't one of the songs on 
the Satriani list. I haven't got the intro (0:00-0:29), I started in 
at the first riff. I just barely started, so I'll have to come back 
to add onto it when I figure more out. E-mail me if you have any 
discrepancies, or anything you want added. I didn't concentrate
heavily on the timing either, too lazy, sorry. If you're looking at 
this page though, you probably know how it goes. Pretty simple, just 
shows you how much better things are with the old Satriani touch.
Word to your mother! Peace out yo. 
[ Tab from: http://www.guitartabs.cc/tabs/s/satriani_joe/friends_tab_ver_2.html ]
(0:29)
E-17--19--17---------------------------------17-17-17-19-22-17-------
B--------------15-17-17B19R17-17-15-----------------------------15-17
G-----------------------------------16-14----------------------------
D--------------------------------------------------------------------
A--------------------------------------------------------------------
E--------------------------------------------------------------------

E--------------------------------------------------------------------
B-17B19R17--17-17-------15-----------15-17-17B19F17-17B19R17-17-15---
G-----------------14-16----16--14-16-------------------------------16
D--------------------------------------------------------------------
A--------------------------------------------------------------------
E--------------------------------------------------------------------

E--------------------------------------------------------------------
B-15-17-15-----------------------------------------------------------
G----------14/16-14--7-----------------------------------------------
D--------------------------------------------------------------------
A--------------------------------------------------------------------
E--------------------------------------------------------------------

 
Comments