Satriani Joe - Friends Chords & Tabs

 

Friends Chords & Tabs

Satriani Joe Chords & Tabs

Version: 1 Type: Tab 0 ratings
1 star 2 stars 3 stars 4 stars 5 stars
comments

Friends Tab

Song Title: Friends
Artist: (The Incredible) Joe Satriani
Album: The Extremist (Old Skool Joe)
Tabbed By: (The Not So Incredible) Matt Bailey

Started tabbing Friends and now I can't stop! This not complete yet,
but I'm working on it. I skipped over the intro, this starts at 0:29
I haven't really spaced it out according to the rythm, but chances are,
if you're on this page, you know how the song goes anyway. If you see 
anything wrong, or have a suggestion my email address is: 
Metalmullitia1@AOL.com
Word to your Mother, Peace out Yo.

(0:29)
E-17--19--17---------------------------------17-17-17-19-22-17-------
B--------------15-17-17B19R17-17-15-----------------------------15-17
G-----------------------------------16-14----------------------------
D--------------------------------------------------------------------
A--------------------------------------------------------------------
E--------------------------------------------------------------------
[ Tab from: http://www.guitartabs.cc/tabs/s/satriani_joe/friends_tab.html ]
E--------------------------------------------------------------------
B-17B19R17--17-17-------15----------15-17-17B19F17-17B19R17-17-15----
G-----------------14-16----16-14-16-------------------------------16-
D--------------------------------------------------------------------
A--------------------------------------------------------------------
E--------------------------------------------------------------------

E--------------------------------------------------------------------
B-15-17-15-----------------------------------------------------------
G----------14/16-14--7-----------------------------------------------
D--------------------------------------------------------------------
A--------------------------------------------------------------------
E--------------------------------------------------------------------

(0:51)
E--------------------------------------------------------------------
B-6-6-6/7--6-4-2-4-6-2-4-6-7/9-9-6-7/9-9-----------------------------
G----------------------------------------6-6-8-10-11-10-8-6-6/8-8----
D-----------------------------------------------------------------8-6
A--------------------------------------------------------------------
E--------------------------------------------------------------------

E--------------------------------------------------------------------
B--------------------------------------------------------------------
G--------------------------------------------------------------------
D-6-6-8-10-11-11-8-6-6/8-6-------------------------------------------
A--------------------------4-----------------------------------------
E--------------------------------------------------------------------
Comments