Satie Erik - Gymnopedie Chords & Tabs

 

Gymnopedie Chords & Tabs

Satie Erik Chords & Tabs

Version: 3 Type: Tab 0 ratings
1 star 2 stars 3 stars 4 stars 5 stars
comments

Gymnopedie Tab

   
#----------------------------------PLEASE NOTE---------------------------------#
#This file is the author's own work and represents their interpretation of the #
#song. You may only use this file for private study, scholarship, or research. #
#------------------------------------------------------------------------------##
From: ak270@lu.erisoft.se (Anders Karlsson)
Subject: TAB Gymnopedie No3

The second of the gymnopedies that I have tried.
This one I have tested the whole of, and it is not a difficult one.
Sorry for the measure format, but this new tool of mine...

Gymnopedie No3 by Erik Satie,                   

6=D
Play it slowly and sadly, in 3/4.
[ Tab from: http://www.guitartabs.cc/tabs/s/satie_erik/gymnopedie_tab_ver_3.html ]
Most measures contains two, and in a few cases three, measures of the original.
Just let the bassnotes measure 1 and the chord two then let it flow.
                                                                                |---------------------------------------|---------------------------------------|
|-----------1---------------------------|-----------1---------------------------|
|---------2---------------0-------------|----------2-----------0----------------|
|--------2----------------2-------------|--------2-------------2----------------|
|---0---------------------2-------------|---0------------------2----------------|
|-------------------0-------------------|-------------------0-------------------|                                                                              
                                                                                |---5---------------3----1----0---------|---------0----------0------------------|
|---------5--------------1--------------|-------------6----------3------1-------|
|---------5-----------------------------|----7----7--------------2--------------|
|------------------------2--------------|---------8--------------3--------------|
|--0----------------3-------------------|---------------------------------------|
|---------------------------------------|----5---------------0------------------|
  
                                                                                                                                                            |---0-----------------3---------3-------|---------------------------------------|
|--------1-----------------0------------|---------0-----------------------------|
|--------2-----------------0------------|----7----------------------5-----------|
|--------2-----------------2------------|---------7-----------------7-----------|
|---0-----------------------------------|---------8-----------------8-----------|
|--------------------2------------------|----5-----------------0----------------|
 
                                                                                                                                                             |---------------------------------------|---3---------5-------------------------|
|---------0------------------5----------|---------5-------------------5----7----|
|----7------------------5---------------|-----------------------7-----5---------|
|---------7-------------7---------------|-----------------------------7---------|
|---------8-------------8---------------|-----------------------------8---------|
|----5--------------0-------------------|---5-------------------5---------------|
 
                                                                                                                                                             |---------------------------------------|---------------------------------------|
|---0-----------------------------------|---------------------------------------|
|---------2---0------2------------------|---7-----------------------------------|
|-------------------------3-------------|-------7---------------------5---------|
|---------3---------------0-------------|--------8--------------------7---------|
|----5---------------0------------------|---5--------------------5--------------|                                                                              
                                                                                |---0---------------1----3----1---------|---0-------0---------------------------|
|---------1---------------0-------------|------3--------------------------------|
|---------2---------------0-------------|-------2---------------0---------------|
|---------2-----------------------------|------------------------0--------------|
|---3-----------------------------------|--3------------------------------------|
|-------------------2-------------------|------------------2--------------------|                                                                              
                                                                          |---------------------------------------|---------------------------------------|
|--------3----1-------0----1-----0------|---------------------------------------|
|--------2-----------------0------------|---2----3----------------0-------------|
|---------------------------------------|-------------------------2-------------|
|---3----------------------2------------|---0---------------------2-------------|
|--------------------2------------------|-------------------0-------------------|

                                                                              |---------------------------------------|---5---------------3----1----0---------|
|-----------1---------------------------|---------5--------------1--------------|
|----------2-----------0----------------|---------5-----------------------------|
|--------2-------------2----------------|------------------------2--------------|
|---0------------------2----------------|--0----------------3-------------------|
|-------------------0-------------------|---------------------------------------|                                                                              
                                                                                |---------0----------0------------------|---0-----------------3---------3-------|
|-------------6----------3------1-------|--------1-----------------0------------|
|----7----7--------------2--------------|--------2-----------------0------------|
|---------8--------------3--------------|--------2-----------------2------------|
|---------------------------------------|---0-----------------------------------|
|----5---------------0------------------|--------------------2------------------|                                                                              
                                                                                |---------------------------------------|--0------------------------------------|
|----1---0-----------0-----1-------3----|---------------------------------------|
|------------2-----------0------------2-|------2--------------------------------|
|------------------------2------------3-|-----2------------2------------3-------|
|---------3-----------------------------|------3-----------3------------3-------|
|---2-----------------2------------0----|--0-----------0------------0-----------|                                                                              
                                                                                |---3---------5-------------------------|---------------------------------------|
|---------5-------------------5----7----|---0-----------------------------------|
|-----------------------7-----5---------|---------2---0------2------------------|
|-----------------------------7---------|-------------------------3-------------|
|-----------------------------8---------|---------3---------------0-------------|
|---5-------------------5---------------|----5---------------0------------------|                                                                              
                                                                                |---------------------------------------|---0---------------1----3----1---------|
|---------------------------------------|---------1---------------0-------------|
|---7-----------------------------------|---------2---------------0-------------|
|-------7---------------------5---------|---------2-----------------------------|
|--------8--------------------7---------|---3-----------------------------------|
|---5--------------------5--------------|-------------------2-------------------|                                                                              
                                                                                |---0-------0---------------------------|---------------------------------------|
|------3--------------------------------|--------3----1-------0----1-----0------|
|-------2---------------0---------------|--------2-----------------0------------|
|------------------------0--------------|---------------------------------------|
|--3------------------------------------|---3----------------------2------------|
|------------------2--------------------|--------------------2------------------|                                                                              
                                                                                |---------------------------------------|---------------------------------------|
|---------------------------------------|-------1----------------------1--------|
|---2---------------------0-------------|-------2----------0-----------2--------|
|-------3----------------2--------------|-------2---------2------------2--------|
|--0----------------------2-------------|---0-------------2------------0--------|
|--------------------0------------------|-------------0-------------------------|



Comments