Satanic Surfers - The Bass Song Chords & Tabs

 

The Bass Song Chords & Tabs

Satanic Surfers Chords & Tabs

Version: 1 Type: Bass Tab 0 ratings
1 star 2 stars 3 stars 4 stars 5 stars
comments

The Bass Song Bass Tab

The last track on Fragments and Fractions is awsome. At the beginning its just
drums for like 5 seconds. From there one the whole song is just this riff
replayed 5 times.
 
* = let that note ring
 
Bass Riff: 
G:--------------------------11---
D:-----9--11--12--14--11-12------
A:---0*--------------------------
E:-------------------------------
 
G:--------------------------11---
D:-----9--11--12--14--11-12------
A:---0*--------------------------
E:-------------------------------
 
G:-----13-14-16--18---13-11------
D:--0*--------------------0*-----
A:-------------------------------
E:-------------------------------
 
G:---------------14---------------14--/
D:--11-12-14--11-12--11-12-14--11-12--/
A:--0*---------9------0*--------9-----/
E:------------------------------------/
[ Tab from: http://www.guitartabs.cc/tabs/s/satanic_surfers/the_bass_song_btab.html ]
Comments